  0
SECTION
  2
HEADER
  9
$ACADVER
  1
AC1024
  9
$ACADMAINTVER
 70
6
  9
$DWGCODEPAGE
  3
ANSI_1252
  9
$LASTSAVEDBY
  1
ezdxf
  9
$INSBASE
 10
0.0
 20
0.0
 30
0.0
  9
$EXTMIN
 10
1e+20
 20
1e+20
 30
1e+20
  9
$EXTMAX
 10
-1e+20
 20
-1e+20
 30
-1e+20
  9
$LIMMIN
 10
0.0
 20
0.0
  9
$LIMMAX
 10
420.0
 20
297.0
  9
$ORTHOMODE
 70
0
  9
$REGENMODE
 70
1
  9
$FILLMODE
 70
1
  9
$QTEXTMODE
 70
0
  9
$MIRRTEXT
 70
1
  9
$LTSCALE
 40
1.0
  9
$ATTMODE
 70
1
  9
$TEXTSIZE
 40
2.5
  9
$TRACEWID
 40
1.0
  9
$TEXTSTYLE
  7
OpenSans
  9
$CLAYER
  8
0
  9
$CELTYPE
  6
ByLayer
  9
$CECOLOR
 62
256
  9
$CELTSCALE
 40
1.0
  9
$DISPSILH
 70
0
  9
$DIMSCALE
 40
1.0
  9
$DIMASZ
 40
0.175
  9
$DIMEXO
 40
0.125
  9
$DIMDLI
 40
3.75
  9
$DIMRND
 40
0.0
  9
$DIMDLE
 40
0.0
  9
$DIMEXE
 40
0.375
  9
$DIMTP
 40
0.0
  9
$DIMTM
 40
0.0
  9
$DIMTXT
 40
0.25
  9
$DIMCEN
 40
2.5
  9
$DIMTSZ
 40
0.0
  9
$DIMTOL
 70
0
  9
$DIMLIM
 70
0
  9
$DIMTIH
 70
0
  9
$DIMTOH
 70
0
  9
$DIMSE1
 70
0
  9
$DIMSE2
 70
0
  9
$DIMTAD
 70
1
  9
$DIMZIN
 70
12
  9
$DIMBLK
  1
ARCHTICK
  9
$DIMASO
 70
1
  9
$DIMSHO
 70
1
  9
$DIMPOST
  1

  9
$DIMAPOST
  1

  9
$DIMALT
 70
0
  9
$DIMALTD
 70
3
  9
$DIMALTF
 40
0.03937007874
  9
$DIMLFAC
 40
100.0
  9
$DIMTOFL
 70
1
  9
$DIMTVP
 40
0.0
  9
$DIMTIX
 70
0
  9
$DIMSOXD
 70
0
  9
$DIMSAH
 70
0
  9
$DIMBLK1
  1

  9
$DIMBLK2
  1

  9
$DIMSTYLE
  2
EZDXF
  9
$DIMCLRD
 70
0
  9
$DIMCLRE
 70
0
  9
$DIMCLRT
 70
0
  9
$DIMTFAC
 40
0.5
  9
$DIMGAP
 40
0.1
  9
$DIMJUST
 70
0
  9
$DIMSD1
 70
0
  9
$DIMSD2
 70
0
  9
$DIMTOLJ
 70
0
  9
$DIMTZIN
 70
8
  9
$DIMALTZ
 70
0
  9
$DIMALTTZ
 70
0
  9
$DIMUPT
 70
1
  9
$DIMDEC
 70
2
  9
$DIMTDEC
 70
2
  9
$DIMALTU
 70
2
  9
$DIMALTTD
 70
3
  9
$DIMTXSTY
  7
OpenSansCondensed-Light
  9
$DIMAUNIT
 70
0
  9
$DIMADEC
 70
2
  9
$DIMALTRND
 40
0.0
  9
$DIMAZIN
 70
3
  9
$DIMDSEP
 70
46
  9
$DIMATFIT
 70
3
  9
$DIMFRAC
 70
0
  9
$DIMLDRBLK
  1

  9
$DIMLUNIT
 70
2
  9
$DIMLWD
 70
-2
  9
$DIMLWE
 70
-2
  9
$DIMTMOVE
 70
2
  9
$DIMFXL
 40
1.0
  9
$DIMFXLON
 70
0
  9
$DIMJOGANG
 40
0.785398163397
  9
$DIMTFILL
 70
0
  9
$DIMTFILLCLR
 70
0
  9
$DIMARCSYM
 70
0
  9
$DIMLTYPE
  6

  9
$DIMLTEX1
  6

  9
$DIMLTEX2
  6

  9
$DIMTXTDIRECTION
 70
0
  9
$LUNITS
 70
2
  9
$LUPREC
 70
4
  9
$SKETCHINC
 40
1.0
  9
$FILLETRAD
 40
10.0
  9
$AUNITS
 70
0
  9
$AUPREC
 70
2
  9
$MENU
  1
.
  9
$ELEVATION
 40
0.0
  9
$PELEVATION
 40
0.0
  9
$THICKNESS
 40
0.0
  9
$LIMCHECK
 70
0
  9
$CHAMFERA
 40
0.0
  9
$CHAMFERB
 40
0.0
  9
$CHAMFERC
 40
0.0
  9
$CHAMFERD
 40
0.0
  9
$SKPOLY
 70
0
  9
$TDCREATE
 40
2461120.005150463
  9
$TDUCREATE
 40
2458532.153996898
  9
$TDUPDATE
 40
2461120.005150463
  9
$TDUUPDATE
 40
2458532.1544311
  9
$TDINDWG
 40
0.0
  9
$TDUSRTIMER
 40
0.0
  9
$USRTIMER
 70
1
  9
$ANGBASE
 50
0.0
  9
$ANGDIR
 70
0
  9
$PDMODE
 70
0
  9
$PDSIZE
 40
0.0
  9
$PLINEWID
 40
0.0
  9
$SPLFRAME
 70
0
  9
$SPLINETYPE
 70
6
  9
$SPLINESEGS
 70
8
  9
$HANDSEED
  5
197
  9
$SURFTAB1
 70
6
  9
$SURFTAB2
 70
6
  9
$SURFTYPE
 70
6
  9
$SURFU
 70
6
  9
$SURFV
 70
6
  9
$UCSBASE
  2

  9
$UCSNAME
  2

  9
$UCSORG
 10
0.0
 20
0.0
 30
0.0
  9
$UCSXDIR
 10
1.0
 20
0.0
 30
0.0
  9
$UCSYDIR
 10
0.0
 20
1.0
 30
0.0
  9
$UCSORTHOREF
  2

  9
$UCSORTHOVIEW
 70
0
  9
$UCSORGTOP
 10
0.0
 20
0.0
 30
0.0
  9
$UCSORGBOTTOM
 10
0.0
 20
0.0
 30
0.0
  9
$UCSORGLEFT
 10
0.0
 20
0.0
 30
0.0
  9
$UCSORGRIGHT
 10
0.0
 20
0.0
 30
0.0
  9
$UCSORGFRONT
 10
0.0
 20
0.0
 30
0.0
  9
$UCSORGBACK
 10
0.0
 20
0.0
 30
0.0
  9
$PUCSBASE
  2

  9
$PUCSNAME
  2

  9
$PUCSORG
 10
0.0
 20
0.0
 30
0.0
  9
$PUCSXDIR
 10
1.0
 20
0.0
 30
0.0
  9
$PUCSYDIR
 10
0.0
 20
1.0
 30
0.0
  9
$PUCSORTHOREF
  2

  9
$PUCSORTHOVIEW
 70
0
  9
$PUCSORGTOP
 10
0.0
 20
0.0
 30
0.0
  9
$PUCSORGBOTTOM
 10
0.0
 20
0.0
 30
0.0
  9
$PUCSORGLEFT
 10
0.0
 20
0.0
 30
0.0
  9
$PUCSORGRIGHT
 10
0.0
 20
0.0
 30
0.0
  9
$PUCSORGFRONT
 10
0.0
 20
0.0
 30
0.0
  9
$PUCSORGBACK
 10
0.0
 20
0.0
 30
0.0
  9
$USERI1
 70
0
  9
$USERI2
 70
0
  9
$USERI3
 70
0
  9
$USERI4
 70
0
  9
$USERI5
 70
0
  9
$USERR1
 40
0.0
  9
$USERR2
 40
0.0
  9
$USERR3
 40
0.0
  9
$USERR4
 40
0.0
  9
$USERR5
 40
0.0
  9
$WORLDVIEW
 70
1
  9
$SHADEDGE
 70
3
  9
$SHADEDIF
 70
70
  9
$TILEMODE
 70
1
  9
$MAXACTVP
 70
64
  9
$PINSBASE
 10
0.0
 20
0.0
 30
0.0
  9
$PLIMCHECK
 70
0
  9
$PEXTMIN
 10
1e+20
 20
1e+20
 30
1e+20
  9
$PEXTMAX
 10
-1e+20
 20
-1e+20
 30
-1e+20
  9
$PLIMMIN
 10
0.0
 20
0.0
  9
$PLIMMAX
 10
420.0
 20
297.0
  9
$UNITMODE
 70
0
  9
$VISRETAIN
 70
1
  9
$PLINEGEN
 70
0
  9
$PSLTSCALE
 70
1
  9
$TREEDEPTH
 70
3020
  9
$CMLSTYLE
  2
Standard
  9
$CMLJUST
 70
0
  9
$CMLSCALE
 40
20.0
  9
$PROXYGRAPHICS
 70
1
  9
$MEASUREMENT
 70
1
  9
$CELWEIGHT
370
-1
  9
$ENDCAPS
280
0
  9
$JOINSTYLE
280
0
  9
$LWDISPLAY
290
1
  9
$INSUNITS
 70
6
  9
$HYPERLINKBASE
  1

  9
$STYLESHEET
  1

  9
$XEDIT
290
1
  9
$CEPSNTYPE
380
0
  9
$PSTYLEMODE
290
1
  9
$FINGERPRINTGUID
  2
{E843E826-601C-4AD8-A82C-2D4D98B48A7B}
  9
$VERSIONGUID
  2
{C6A3742F-BE17-49F0-B430-A96A96CC32AE}
  9
$EXTNAMES
290
1
  9
$PSVPSCALE
 40
0.0
  9
$OLESTARTUP
290
0
  9
$SORTENTS
280
127
  9
$INDEXCTL
280
0
  9
$HIDETEXT
280
1
  9
$XCLIPFRAME
280
1
  9
$HALOGAP
280
0
  9
$OBSCOLOR
 70
257
  9
$OBSLTYPE
280
0
  9
$INTERSECTIONDISPLAY
280
0
  9
$INTERSECTIONCOLOR
 70
257
  9
$DIMASSOC
280
2
  9
$PROJECTNAME
  1

  9
$CAMERADISPLAY
290
0
  9
$LENSLENGTH
 40
50.0
  9
$CAMERAHEIGHT
 40
0.0
  9
$STEPSPERSEC
 40
24.0
  9
$STEPSIZE
 40
100.0
  9
$3DDWFPREC
 40
2.0
  9
$PSOLWIDTH
 40
0.005
  9
$PSOLHEIGHT
 40
0.08
  9
$LOFTANG1
 40
1.570796326795
  9
$LOFTANG2
 40
1.570796326795
  9
$LOFTMAG1
 40
0.0
  9
$LOFTMAG2
 40
0.0
  9
$LOFTPARAM
 70
7
  9
$LOFTNORMALS
280
1
  9
$LATITUDE
 40
37.795
  9
$LONGITUDE
 40
-122.394
  9
$NORTHDIRECTION
 40
0.0
  9
$TIMEZONE
 70
-8000
  9
$LIGHTGLYPHDISPLAY
280
1
  9
$TILEMODELIGHTSYNCH
280
1
  9
$CMATERIAL
347
20
  9
$SOLIDHIST
280
0
  9
$SHOWHIST
280
1
  9
$DWFFRAME
280
2
  9
$DGNFRAME
280
2
  9
$REALWORLDSCALE
290
1
  9
$INTERFERECOLOR
 62
256
  9
$CSHADOW
280
0
  9
$SHADOWPLANELOCATION
 40
0.0
  0
ENDSEC
  0
SECTION
  2
CLASSES
  0
CLASS
  1
ACDBDICTIONARYWDFLT
  2
AcDbDictionaryWithDefault
  3
ObjectDBX Classes
 90
0
 91
0
280
0
281
0
  0
CLASS
  1
SUN
  2
AcDbSun
  3
SCENEOE
 90
1153
 91
0
280
0
281
0
  0
CLASS
  1
VISUALSTYLE
  2
AcDbVisualStyle
  3
ObjectDBX Classes
 90
4095
 91
0
280
0
281
0
  0
CLASS
  1
MATERIAL
  2
AcDbMaterial
  3
ObjectDBX Classes
 90
1153
 91
0
280
0
281
0
  0
CLASS
  1
SCALE
  2
AcDbScale
  3
ObjectDBX Classes
 90
1153
 91
0
280
0
281
0
  0
CLASS
  1
TABLESTYLE
  2
AcDbTableStyle
  3
ObjectDBX Classes
 90
4095
 91
0
280
0
281
0
  0
CLASS
  1
MLEADERSTYLE
  2
AcDbMLeaderStyle
  3
ACDB_MLEADERSTYLE_CLASS
 90
4095
 91
0
280
0
281
0
  0
CLASS
  1
DICTIONARYVAR
  2
AcDbDictionaryVar
  3
ObjectDBX Classes
 90
0
 91
0
280
0
281
0
  0
CLASS
  1
CELLSTYLEMAP
  2
AcDbCellStyleMap
  3
ObjectDBX Classes
 90
1152
 91
0
280
0
281
0
  0
CLASS
  1
MENTALRAYRENDERSETTINGS
  2
AcDbMentalRayRenderSettings
  3
SCENEOE
 90
1024
 91
0
280
0
281
0
  0
CLASS
  1
ACDBDETAILVIEWSTYLE
  2
AcDbDetailViewStyle
  3
ObjectDBX Classes
 90
1025
 91
0
280
0
281
0
  0
CLASS
  1
ACDBSECTIONVIEWSTYLE
  2
AcDbSectionViewStyle
  3
ObjectDBX Classes
 90
1025
 91
0
280
0
281
0
  0
CLASS
  1
RASTERVARIABLES
  2
AcDbRasterVariables
  3
ISM
 90
0
 91
0
280
0
281
0
  0
CLASS
  1
ACDBPLACEHOLDER
  2
AcDbPlaceHolder
  3
ObjectDBX Classes
 90
0
 91
0
280
0
281
0
  0
CLASS
  1
LAYOUT
  2
AcDbLayout
  3
ObjectDBX Classes
 90
0
 91
0
280
0
281
0
  0
ENDSEC
  0
SECTION
  2
TABLES
  0
TABLE
  2
VPORT
  5
8
330
0
100
AcDbSymbolTable
 70
1
  0
VPORT
  5
23
330
8
100
AcDbSymbolTableRecord
100
AcDbViewportTableRecord
  2
*Active
 70
0
 10
0.0
 20
0.0
 11
1.0
 21
1.0
 12
0.0
 22
0.0
 13
0.0
 23
0.0
 14
0.5
 24
0.5
 15
0.5
 25
0.5
 16
0.0
 26
0.0
 36
1.0
 17
0.0
 27
0.0
 37
0.0
 40
1000.0
 41
1.34
 42
50.0
 43
0.0
 44
0.0
 50
0.0
 51
0.0
 71
0
 72
1000
 73
1
 74
3
 75
0
 76
0
 77
0
 78
0
281
0
 65
0
146
0.0
  0
ENDTAB
  0
TABLE
  2
LTYPE
  5
2
330
0
100
AcDbSymbolTable
 70
21
  0
LTYPE
  5
24
330
2
100
AcDbSymbolTableRecord
100
AcDbLinetypeTableRecord
  2
ByBlock
 70
0
  3

 72
65
 73
0
 40
0.0
  0
LTYPE
  5
25
330
2
100
AcDbSymbolTableRecord
100
AcDbLinetypeTableRecord
  2
ByLayer
 70
0
  3

 72
65
 73
0
 40
0.0
  0
LTYPE
  5
26
330
2
100
AcDbSymbolTableRecord
100
AcDbLinetypeTableRecord
  2
Continuous
 70
0
  3

 72
65
 73
0
 40
0.0
  0
LTYPE
  5
2F
330
2
100
AcDbSymbolTableRecord
100
AcDbLinetypeTableRecord
  2
CENTER
 70
0
  3
Center ____ _ ____ _ ____ _ ____ _ ____ _ ____
 72
65
 73
4
 40
5.08
 49
3.175
 74
0
 49
-0.635
 74
0
 49
0.635
 74
0
 49
-0.635
 74
0
  0
LTYPE
  5
30
330
2
100
AcDbSymbolTableRecord
100
AcDbLinetypeTableRecord
  2
CENTERX2
 70
0
  3
Center (2x) ________  __  ________  __  ________
 72
65
 73
4
 40
8.89
 49
6.35
 74
0
 49
-0.635
 74
0
 49
1.27
 74
0
 49
-0.635
 74
0
  0
LTYPE
  5
31
330
2
100
AcDbSymbolTableRecord
100
AcDbLinetypeTableRecord
  2
CENTER2
 70
0
  3
Center (.5x) ____ _ ____ _ ____ _ ____ _ ____
 72
65
 73
4
 40
2.54
 49
1.587
 74
0
 49
-0.318
 74
0
 49
0.318
 74
0
 49
-0.318
 74
0
  0
LTYPE
  5
32
330
2
100
AcDbSymbolTableRecord
100
AcDbLinetypeTableRecord
  2
DASHED
 70
0
  3
Dashed __ __ __ __ __ __ __ __ __ __ __ __ __ _
 72
65
 73
2
 40
1.524
 49
1.27
 74
0
 49
-0.254
 74
0
  0
LTYPE
  5
33
330
2
100
AcDbSymbolTableRecord
100
AcDbLinetypeTableRecord
  2
DASHEDX2
 70
0
  3
Dashed (2x) ____  ____  ____  ____  ____  ____
 72
65
 73
2
 40
3.048
 49
2.54
 74
0
 49
-0.508
 74
0
  0
LTYPE
  5
34
330
2
100
AcDbSymbolTableRecord
100
AcDbLinetypeTableRecord
  2
DASHED2
 70
0
  3
Dashed (.5x) _ _ _ _ _ _ _ _ _ _ _ _ _ _
 72
65
 73
2
 40
0.762
 49
0.635
 74
0
 49
-0.127
 74
0
  0
LTYPE
  5
35
330
2
100
AcDbSymbolTableRecord
100
AcDbLinetypeTableRecord
  2
PHANTOM
 70
0
  3
Phantom ______  __  __  ______  __  __  ______
 72
65
 73
6
 40
6.35
 49
3.175
 74
0
 49
-0.635
 74
0
 49
0.635
 74
0
 49
-0.635
 74
0
 49
0.635
 74
0
 49
-0.635
 74
0
  0
LTYPE
  5
36
330
2
100
AcDbSymbolTableRecord
100
AcDbLinetypeTableRecord
  2
PHANTOMX2
 70
0
  3
Phantom (2x)____________    ____    ____    ____________
 72
65
 73
6
 40
10.795
 49
6.35
 74
0
 49
-0.635
 74
0
 49
1.27
 74
0
 49
-0.635
 74
0
 49
1.27
 74
0
 49
-0.635
 74
0
  0
LTYPE
  5
37
330
2
100
AcDbSymbolTableRecord
100
AcDbLinetypeTableRecord
  2
PHANTOM2
 70
0
  3
Phantom (.5x) ___ _ _ ___ _ _ ___ _ _ ___ _ _ ___
 72
65
 73
6
 40
3.175
 49
1.587
 74
0
 49
-0.318
 74
0
 49
0.318
 74
0
 49
-0.318
 74
0
 49
0.318
 74
0
 49
-0.318
 74
0
  0
LTYPE
  5
38
330
2
100
AcDbSymbolTableRecord
100
AcDbLinetypeTableRecord
  2
DASHDOT
 70
0
  3
Dash dot __ . __ . __ . __ . __ . __ . __ . __
 72
65
 73
4
 40
3.556
 49
2.54
 74
0
 49
-0.508
 74
0
 49
0.0
 74
0
 49
-0.508
 74
0
  0
LTYPE
  5
39
330
2
100
AcDbSymbolTableRecord
100
AcDbLinetypeTableRecord
  2
DASHDOTX2
 70
0
  3
Dash dot (2x) ____  .  ____  .  ____  .  ____
 72
65
 73
4
 40
6.096
 49
5.08
 74
0
 49
-0.508
 74
0
 49
0.0
 74
0
 49
-0.508
 74
0
  0
LTYPE
  5
3A
330
2
100
AcDbSymbolTableRecord
100
AcDbLinetypeTableRecord
  2
DASHDOT2
 70
0
  3
Dash dot (.5x) _ . _ . _ . _ . _ . _ . _ . _
 72
65
 73
4
 40
1.778
 49
1.27
 74
0
 49
-0.254
 74
0
 49
0.0
 74
0
 49
-0.254
 74
0
  0
LTYPE
  5
3B
330
2
100
AcDbSymbolTableRecord
100
AcDbLinetypeTableRecord
  2
DOT
 70
0
  3
Dot .  .  .  .  .  .  .  .  .  .  .  .  .  .  .  .
 72
65
 73
2
 40
0.508
 49
0.0
 74
0
 49
-0.508
 74
0
  0
LTYPE
  5
3C
330
2
100
AcDbSymbolTableRecord
100
AcDbLinetypeTableRecord
  2
DOTX2
 70
0
  3
Dot (2x) .    .    .    .    .    .    .    . 
 72
65
 73
2
 40
1.016
 49
0.0
 74
0
 49
-1.016
 74
0
  0
LTYPE
  5
3D
330
2
100
AcDbSymbolTableRecord
100
AcDbLinetypeTableRecord
  2
DOT2
 70
0
  3
Dot (.5) . . . . . . . . . . . . . . . . . . . 
 72
65
 73
2
 40
0.254
 49
0.0
 74
0
 49
-0.254
 74
0
  0
LTYPE
  5
3E
330
2
100
AcDbSymbolTableRecord
100
AcDbLinetypeTableRecord
  2
DIVIDE
 70
0
  3
Divide __ . . __ . . __ . . __ . . __ . . __
 72
65
 73
6
 40
4.064
 49
2.54
 74
0
 49
-0.508
 74
0
 49
0.0
 74
0
 49
-0.508
 74
0
 49
0.0
 74
0
 49
-0.508
 74
0
  0
LTYPE
  5
3F
330
2
100
AcDbSymbolTableRecord
100
AcDbLinetypeTableRecord
  2
DIVIDEX2
 70
0
  3
Divide (2x) ____  . .  ____  . .  ____  . .  ____
 72
65
 73
6
 40
6.604
 49
5.08
 74
0
 49
-0.508
 74
0
 49
0.0
 74
0
 49
-0.508
 74
0
 49
0.0
 74
0
 49
-0.508
 74
0
  0
LTYPE
  5
40
330
2
100
AcDbSymbolTableRecord
100
AcDbLinetypeTableRecord
  2
DIVIDE2
 70
0
  3
Divide(.5x) _ . _ . _ . _ . _ . _ . _ . _
 72
65
 73
6
 40
2.032
 49
1.27
 74
0
 49
-0.254
 74
0
 49
0.0
 74
0
 49
-0.254
 74
0
 49
0.0
 74
0
 49
-0.254
 74
0
  0
ENDTAB
  0
TABLE
  2
LAYER
  5
1
330
0
100
AcDbSymbolTable
 70
63
  0
LAYER
  5
27
330
1
100
AcDbSymbolTableRecord
100
AcDbLayerTableRecord
  2
0
 70
0
 62
7
  6
Continuous
370
-3
390
13
347
21
  0
LAYER
  5
28
330
1
100
AcDbSymbolTableRecord
100
AcDbLayerTableRecord
  2
Defpoints
 70
0
 62
7
  6
Continuous
290
0
370
-3
390
13
347
21
  0
LAYER
  5
90
330
1
100
AcDbSymbolTableRecord
100
AcDbLayerTableRecord
  2
BORDER
 70
0
 62
7
  6
Continuous
370
70
390
13
347
21
  0
LAYER
  5
91
330
1
100
AcDbSymbolTableRecord
100
AcDbLayerTableRecord
  2
TITLEBLOCK
 70
0
 62
7
  6
Continuous
370
50
390
13
347
21
  0
LAYER
  5
92
330
1
100
AcDbSymbolTableRecord
100
AcDbLayerTableRecord
  2
SITE_BOUNDARY
 70
0
 62
1
  6
DASHDOT
370
70
390
13
347
21
  0
LAYER
  5
93
330
1
100
AcDbSymbolTableRecord
100
AcDbLayerTableRecord
  2
ZONE_BOUNDARY
 70
0
 62
40
  6
DASHED
370
50
390
13
347
21
  0
LAYER
  5
94
330
1
100
AcDbSymbolTableRecord
100
AcDbLayerTableRecord
  2
BUILDINGS
 70
0
 62
7
  6
Continuous
370
50
390
13
347
21
  0
LAYER
  5
95
330
1
100
AcDbSymbolTableRecord
100
AcDbLayerTableRecord
  2
BUILDINGS_EXISTING
 70
0
 62
30
  6
Continuous
370
50
390
13
347
21
  0
LAYER
  5
96
330
1
100
AcDbSymbolTableRecord
100
AcDbLayerTableRecord
  2
HATCH_RESIDENTIAL_LOW
 70
0
 62
40
  6
Continuous
370
5
390
13
347
21
  0
LAYER
  5
97
330
1
100
AcDbSymbolTableRecord
100
AcDbLayerTableRecord
  2
HATCH_RESIDENTIAL_MED
 70
0
 62
142
  6
Continuous
370
5
390
13
347
21
  0
LAYER
  5
98
330
1
100
AcDbSymbolTableRecord
100
AcDbLayerTableRecord
  2
HATCH_RESIDENTIAL_HIGH
 70
0
 62
150
  6
Continuous
370
5
390
13
347
21
  0
LAYER
  5
99
330
1
100
AcDbSymbolTableRecord
100
AcDbLayerTableRecord
  2
HATCH_COMMERCIAL
 70
0
 62
10
  6
Continuous
370
5
390
13
347
21
  0
LAYER
  5
9A
330
1
100
AcDbSymbolTableRecord
100
AcDbLayerTableRecord
  2
HATCH_GREEN
 70
0
 62
82
  6
Continuous
370
5
390
13
347
21
  0
LAYER
  5
9B
330
1
100
AcDbSymbolTableRecord
100
AcDbLayerTableRecord
  2
HATCH_EDUCATION
 70
0
 62
50
  6
Continuous
370
5
390
13
347
21
  0
LAYER
  5
9C
330
1
100
AcDbSymbolTableRecord
100
AcDbLayerTableRecord
  2
HATCH_HEALTH
 70
0
 62
200
  6
Continuous
370
5
390
13
347
21
  0
LAYER
  5
9D
330
1
100
AcDbSymbolTableRecord
100
AcDbLayerTableRecord
  2
HATCH_RELIGIOUS
 70
0
 62
170
  6
Continuous
370
5
390
13
347
21
  0
LAYER
  5
9E
330
1
100
AcDbSymbolTableRecord
100
AcDbLayerTableRecord
  2
HATCH_ROAD
 70
0
 62
253
  6
Continuous
370
5
390
13
347
21
  0
LAYER
  5
9F
330
1
100
AcDbSymbolTableRecord
100
AcDbLayerTableRecord
  2
HATCH_WATER
 70
0
 62
150
  6
Continuous
370
5
390
13
347
21
  0
LAYER
  5
A0
330
1
100
AcDbSymbolTableRecord
100
AcDbLayerTableRecord
  2
HATCH_SOLAR
 70
0
 62
50
  6
Continuous
370
5
390
13
347
21
  0
LAYER
  5
A1
330
1
100
AcDbSymbolTableRecord
100
AcDbLayerTableRecord
  2
ROADS_PRIMARY
 70
0
 62
7
  6
Continuous
370
50
390
13
347
21
  0
LAYER
  5
A2
330
1
100
AcDbSymbolTableRecord
100
AcDbLayerTableRecord
  2
ROADS_SECONDARY
 70
0
 62
30
  6
Continuous
370
35
390
13
347
21
  0
LAYER
  5
A3
330
1
100
AcDbSymbolTableRecord
100
AcDbLayerTableRecord
  2
ROADS_LOCAL
 70
0
 62
253
  6
Continuous
370
25
390
13
347
21
  0
LAYER
  5
A4
330
1
100
AcDbSymbolTableRecord
100
AcDbLayerTableRecord
  2
ROADS_CENTER
 70
0
 62
4
  6
CENTER
370
18
390
13
347
21
  0
LAYER
  5
A5
330
1
100
AcDbSymbolTableRecord
100
AcDbLayerTableRecord
  2
BRT_LINE
 70
0
 62
1
  6
DASHED
370
35
390
13
347
21
  0
LAYER
  5
A6
330
1
100
AcDbSymbolTableRecord
100
AcDbLayerTableRecord
  2
BRT_STATION
 70
0
 62
1
  6
Continuous
370
35
390
13
347
21
  0
LAYER
  5
A7
330
1
100
AcDbSymbolTableRecord
100
AcDbLayerTableRecord
  2
PEDESTRIAN
 70
0
 62
3
  6
DASHED
370
18
390
13
347
21
  0
LAYER
  5
A8
330
1
100
AcDbSymbolTableRecord
100
AcDbLayerTableRecord
  2
TREES
 70
0
 62
82
  6
Continuous
370
18
390
13
347
21
  0
LAYER
  5
A9
330
1
100
AcDbSymbolTableRecord
100
AcDbLayerTableRecord
  2
GREEN_CORRIDOR
 70
0
 62
3
  6
Continuous
370
25
390
13
347
21
  0
LAYER
  5
AA
330
1
100
AcDbSymbolTableRecord
100
AcDbLayerTableRecord
  2
GREEN_BELT
 70
0
 62
94
  6
Continuous
370
25
390
13
347
21
  0
LAYER
  5
AB
330
1
100
AcDbSymbolTableRecord
100
AcDbLayerTableRecord
  2
CONTOUR_MAJOR
 70
0
 62
46
  6
Continuous
370
25
390
13
347
21
  0
LAYER
  5
AC
330
1
100
AcDbSymbolTableRecord
100
AcDbLayerTableRecord
  2
CONTOUR_MINOR
 70
0
 62
46
  6
Continuous
370
13
390
13
347
21
  0
LAYER
  5
AD
330
1
100
AcDbSymbolTableRecord
100
AcDbLayerTableRecord
  2
WATER_CHANNEL
 70
0
 62
5
  6
Continuous
370
25
390
13
347
21
  0
LAYER
  5
AE
330
1
100
AcDbSymbolTableRecord
100
AcDbLayerTableRecord
  2
EXISTING_STRUCT
 70
0
 62
30
  6
Continuous
370
50
390
13
347
21
  0
LAYER
  5
AF
330
1
100
AcDbSymbolTableRecord
100
AcDbLayerTableRecord
  2
HIGHWAY
 70
0
 62
1
  6
DASHED
370
50
390
13
347
21
  0
LAYER
  5
B0
330
1
100
AcDbSymbolTableRecord
100
AcDbLayerTableRecord
  2
DIMENSIONS
 70
0
 62
2
  6
Continuous
370
18
390
13
347
21
  0
LAYER
  5
B1
330
1
100
AcDbSymbolTableRecord
100
AcDbLayerTableRecord
  2
TEXT_TITLE
 70
0
 62
7
  6
Continuous
370
25
390
13
347
21
  0
LAYER
  5
B2
330
1
100
AcDbSymbolTableRecord
100
AcDbLayerTableRecord
  2
TEXT_LABEL
 70
0
 62
7
  6
Continuous
370
18
390
13
347
21
  0
LAYER
  5
B3
330
1
100
AcDbSymbolTableRecord
100
AcDbLayerTableRecord
  2
TEXT_NOTE
 70
0
 62
7
  6
Continuous
370
13
390
13
347
21
  0
LAYER
  5
B4
330
1
100
AcDbSymbolTableRecord
100
AcDbLayerTableRecord
  2
ANNOTATION
 70
0
 62
7
  6
Continuous
370
18
390
13
347
21
  0
LAYER
  5
B5
330
1
100
AcDbSymbolTableRecord
100
AcDbLayerTableRecord
  2
NORTH_ARROW
 70
0
 62
7
  6
Continuous
370
35
390
13
347
21
  0
LAYER
  5
B6
330
1
100
AcDbSymbolTableRecord
100
AcDbLayerTableRecord
  2
SCALE_BAR
 70
0
 62
7
  6
Continuous
370
25
390
13
347
21
  0
LAYER
  5
B7
330
1
100
AcDbSymbolTableRecord
100
AcDbLayerTableRecord
  2
SETBACKS
 70
0
 62
1
  6
DASHED
370
13
390
13
347
21
  0
LAYER
  5
B8
330
1
100
AcDbSymbolTableRecord
100
AcDbLayerTableRecord
  2
LOT_GRID
 70
0
 62
253
  6
DASHED
370
5
390
13
347
21
  0
LAYER
  5
B9
330
1
100
AcDbSymbolTableRecord
100
AcDbLayerTableRecord
  2
HEIGHT_2FL
 70
0
 62
82
  6
Continuous
370
25
390
13
347
21
  0
LAYER
  5
BA
330
1
100
AcDbSymbolTableRecord
100
AcDbLayerTableRecord
  2
HEIGHT_46FL
 70
0
 62
150
  6
Continuous
370
25
390
13
347
21
  0
LAYER
  5
BB
330
1
100
AcDbSymbolTableRecord
100
AcDbLayerTableRecord
  2
HEIGHT_68FL
 70
0
 62
30
  6
Continuous
370
25
390
13
347
21
  0
LAYER
  5
BC
330
1
100
AcDbSymbolTableRecord
100
AcDbLayerTableRecord
  2
HEIGHT_1014FL
 70
0
 62
1
  6
Continuous
370
35
390
13
347
21
  0
LAYER
  5
BD
330
1
100
AcDbSymbolTableRecord
100
AcDbLayerTableRecord
  2
HATCH_H2
 70
0
 62
82
  6
Continuous
370
5
390
13
347
21
  0
LAYER
  5
BE
330
1
100
AcDbSymbolTableRecord
100
AcDbLayerTableRecord
  2
HATCH_H46
 70
0
 62
150
  6
Continuous
370
5
390
13
347
21
  0
LAYER
  5
BF
330
1
100
AcDbSymbolTableRecord
100
AcDbLayerTableRecord
  2
HATCH_H68
 70
0
 62
30
  6
Continuous
370
5
390
13
347
21
  0
LAYER
  5
C0
330
1
100
AcDbSymbolTableRecord
100
AcDbLayerTableRecord
  2
HATCH_H1014
 70
0
 62
1
  6
Continuous
370
5
390
13
347
21
  0
LAYER
  5
C1
330
1
100
AcDbSymbolTableRecord
100
AcDbLayerTableRecord
  2
GROUND
 70
0
 62
46
  6
Continuous
370
50
390
13
347
21
  0
LAYER
  5
C2
330
1
100
AcDbSymbolTableRecord
100
AcDbLayerTableRecord
  2
ASPHALT
 70
0
 62
253
  6
Continuous
370
35
390
13
347
21
  0
LAYER
  5
C3
330
1
100
AcDbSymbolTableRecord
100
AcDbLayerTableRecord
  2
SIDEWALK_CS
 70
0
 62
7
  6
Continuous
370
25
390
13
347
21
  0
LAYER
  5
C4
330
1
100
AcDbSymbolTableRecord
100
AcDbLayerTableRecord
  2
MEDIAN_CS
 70
0
 62
3
  6
Continuous
370
25
390
13
347
21
  0
LAYER
  5
C5
330
1
100
AcDbSymbolTableRecord
100
AcDbLayerTableRecord
  2
BIKE_CS
 70
0
 62
82
  6
Continuous
370
25
390
13
347
21
  0
LAYER
  5
C6
330
1
100
AcDbSymbolTableRecord
100
AcDbLayerTableRecord
  2
BRT_CS
 70
0
 62
1
  6
Continuous
370
25
390
13
347
21
  0
LAYER
  5
C7
330
1
100
AcDbSymbolTableRecord
100
AcDbLayerTableRecord
  2
TREE_CS
 70
0
 62
3
  6
Continuous
370
18
390
13
347
21
  0
LAYER
  5
C8
330
1
100
AcDbSymbolTableRecord
100
AcDbLayerTableRecord
  2
HATCH_ASPHALT
 70
0
 62
253
  6
Continuous
370
5
390
13
347
21
  0
LAYER
  5
C9
330
1
100
AcDbSymbolTableRecord
100
AcDbLayerTableRecord
  2
HATCH_SIDEWALK
 70
0
 62
7
  6
Continuous
370
5
390
13
347
21
  0
LAYER
  5
CA
330
1
100
AcDbSymbolTableRecord
100
AcDbLayerTableRecord
  2
HATCH_MEDIAN
 70
0
 62
82
  6
Continuous
370
5
390
13
347
21
  0
LAYER
  5
CB
330
1
100
AcDbSymbolTableRecord
100
AcDbLayerTableRecord
  2
HATCH_BIKE
 70
0
 62
82
  6
Continuous
370
5
390
13
347
21
  0
LAYER
  5
CC
330
1
100
AcDbSymbolTableRecord
100
AcDbLayerTableRecord
  2
HATCH_BRT
 70
0
 62
10
  6
Continuous
370
5
390
13
347
21
  0
ENDTAB
  0
TABLE
  2
STYLE
  5
5
330
0
100
AcDbSymbolTable
 70
31
  0
STYLE
  5
29
330
5
100
AcDbSymbolTableRecord
100
AcDbTextStyleTableRecord
  2
Standard
 70
0
 40
0.0
 41
1.0
 50
0.0
 71
0
 42
2.5
  3
txt
  4

  0
STYLE
  5
41
330
5
100
AcDbSymbolTableRecord
100
AcDbTextStyleTableRecord
  2
OpenSans-Light
 70
0
 40
0.0
 41
1.0
 50
0.0
 71
0
 42
2.5
  3
OpenSans-Light.ttf
  4

  0
STYLE
  5
42
330
5
100
AcDbSymbolTableRecord
100
AcDbTextStyleTableRecord
  2
OpenSans-Light-Italic
 70
0
 40
0.0
 41
1.0
 50
0.0
 71
0
 42
2.5
  3
OpenSans-LightItalic.ttf
  4

  0
STYLE
  5
43
330
5
100
AcDbSymbolTableRecord
100
AcDbTextStyleTableRecord
  2
OpenSans
 70
0
 40
0.0
 41
1.0
 50
0.0
 71
0
 42
2.5
  3
OpenSans-Regular.ttf
  4

  0
STYLE
  5
44
330
5
100
AcDbSymbolTableRecord
100
AcDbTextStyleTableRecord
  2
OpenSans-Italic
 70
0
 40
0.0
 41
1.0
 50
0.0
 71
0
 42
2.5
  3
OpenSans-Italic.ttf
  4

  0
STYLE
  5
45
330
5
100
AcDbSymbolTableRecord
100
AcDbTextStyleTableRecord
  2
OpenSans-SemiBold
 70
0
 40
0.0
 41
1.0
 50
0.0
 71
0
 42
2.5
  3
OpenSans-SemiBold.ttf
  4

  0
STYLE
  5
46
330
5
100
AcDbSymbolTableRecord
100
AcDbTextStyleTableRecord
  2
OpenSans-SemiBoldItalic
 70
0
 40
0.0
 41
1.0
 50
0.0
 71
0
 42
2.5
  3
OpenSans-SemiBoldItalic.ttf
  4

  0
STYLE
  5
47
330
5
100
AcDbSymbolTableRecord
100
AcDbTextStyleTableRecord
  2
OpenSans-Bold
 70
0
 40
0.0
 41
1.0
 50
0.0
 71
0
 42
2.5
  3
OpenSans-Bold.ttf
  4

  0
STYLE
  5
48
330
5
100
AcDbSymbolTableRecord
100
AcDbTextStyleTableRecord
  2
OpenSans-BoldItalic
 70
0
 40
0.0
 41
1.0
 50
0.0
 71
0
 42
2.5
  3
OpenSans-BoldItalic.ttf
  4

  0
STYLE
  5
49
330
5
100
AcDbSymbolTableRecord
100
AcDbTextStyleTableRecord
  2
OpenSans-ExtraBold
 70
0
 40
0.0
 41
1.0
 50
0.0
 71
0
 42
2.5
  3
OpenSans-ExtraBold.ttf
  4

  0
STYLE
  5
4A
330
5
100
AcDbSymbolTableRecord
100
AcDbTextStyleTableRecord
  2
OpenSans-ExtraBoldItalic
 70
0
 40
0.0
 41
1.0
 50
0.0
 71
0
 42
2.5
  3
OpenSans-ExtraBoldItalic.ttf
  4

  0
STYLE
  5
4B
330
5
100
AcDbSymbolTableRecord
100
AcDbTextStyleTableRecord
  2
OpenSansCondensed-Bold
 70
0
 40
0.0
 41
1.0
 50
0.0
 71
0
 42
2.5
  3
OpenSansCondensed-Bold.ttf
  4

  0
STYLE
  5
4C
330
5
100
AcDbSymbolTableRecord
100
AcDbTextStyleTableRecord
  2
OpenSansCondensed-Light
 70
0
 40
0.0
 41
1.0
 50
0.0
 71
0
 42
2.5
  3
OpenSansCondensed-Light.ttf
  4

  0
STYLE
  5
4D
330
5
100
AcDbSymbolTableRecord
100
AcDbTextStyleTableRecord
  2
OpenSansCondensed-Italic
 70
0
 40
0.0
 41
1.0
 50
0.0
 71
0
 42
2.5
  3
OpenSansCondensed-LightItalic.ttf
  4

  0
STYLE
  5
4E
330
5
100
AcDbSymbolTableRecord
100
AcDbTextStyleTableRecord
  2
LiberationSans
 70
0
 40
0.0
 41
1.0
 50
0.0
 71
0
 42
2.5
  3
LiberationSans-Regular.ttf
  4

  0
STYLE
  5
4F
330
5
100
AcDbSymbolTableRecord
100
AcDbTextStyleTableRecord
  2
LiberationSans-Bold
 70
0
 40
0.0
 41
1.0
 50
0.0
 71
0
 42
2.5
  3
LiberationSans-Bold.ttf
  4

  0
STYLE
  5
50
330
5
100
AcDbSymbolTableRecord
100
AcDbTextStyleTableRecord
  2
LiberationSans-BoldItalic
 70
0
 40
0.0
 41
1.0
 50
0.0
 71
0
 42
2.5
  3
LiberationSans-BoldItalic.ttf
  4

  0
STYLE
  5
51
330
5
100
AcDbSymbolTableRecord
100
AcDbTextStyleTableRecord
  2
LiberationSans-Italic
 70
0
 40
0.0
 41
1.0
 50
0.0
 71
0
 42
2.5
  3
LiberationSans-Italic.ttf
  4

  0
STYLE
  5
52
330
5
100
AcDbSymbolTableRecord
100
AcDbTextStyleTableRecord
  2
LiberationSerif
 70
0
 40
0.0
 41
1.0
 50
0.0
 71
0
 42
2.5
  3
LiberationSerif-Regular.ttf
  4

  0
STYLE
  5
53
330
5
100
AcDbSymbolTableRecord
100
AcDbTextStyleTableRecord
  2
LiberationSerif-Bold
 70
0
 40
0.0
 41
1.0
 50
0.0
 71
0
 42
2.5
  3
LiberationSerif-Bold.ttf
  4

  0
STYLE
  5
54
330
5
100
AcDbSymbolTableRecord
100
AcDbTextStyleTableRecord
  2
LiberationSerif-BoldItalic
 70
0
 40
0.0
 41
1.0
 50
0.0
 71
0
 42
2.5
  3
LiberationSerif-BoldItalic.ttf
  4

  0
STYLE
  5
55
330
5
100
AcDbSymbolTableRecord
100
AcDbTextStyleTableRecord
  2
LiberationSerif-Italic
 70
0
 40
0.0
 41
1.0
 50
0.0
 71
0
 42
2.5
  3
LiberationSerif-Italic.ttf
  4

  0
STYLE
  5
56
330
5
100
AcDbSymbolTableRecord
100
AcDbTextStyleTableRecord
  2
LiberationMono
 70
0
 40
0.0
 41
1.0
 50
0.0
 71
0
 42
2.5
  3
LiberationMono-Regular.ttf
  4

  0
STYLE
  5
57
330
5
100
AcDbSymbolTableRecord
100
AcDbTextStyleTableRecord
  2
LiberationMono-Bold
 70
0
 40
0.0
 41
1.0
 50
0.0
 71
0
 42
2.5
  3
LiberationMono-Bold.ttf
  4

  0
STYLE
  5
58
330
5
100
AcDbSymbolTableRecord
100
AcDbTextStyleTableRecord
  2
LiberationMono-BoldItalic
 70
0
 40
0.0
 41
1.0
 50
0.0
 71
0
 42
2.5
  3
LiberationMono-BoldItalic.ttf
  4

  0
STYLE
  5
59
330
5
100
AcDbSymbolTableRecord
100
AcDbTextStyleTableRecord
  2
LiberationMono-Italic
 70
0
 40
0.0
 41
1.0
 50
0.0
 71
0
 42
2.5
  3
LiberationMono-Italic.ttf
  4

  0
STYLE
  5
8A
330
5
100
AcDbSymbolTableRecord
100
AcDbTextStyleTableRecord
  2
TITLE
 70
0
 40
0.0
 41
1.0
 50
0.0
 71
0
 42
2.5
  3
Arial.ttf
  4

  0
STYLE
  5
8B
330
5
100
AcDbSymbolTableRecord
100
AcDbTextStyleTableRecord
  2
SUBTITLE
 70
0
 40
0.0
 41
1.0
 50
0.0
 71
0
 42
2.5
  3
Arial.ttf
  4

  0
STYLE
  5
8C
330
5
100
AcDbSymbolTableRecord
100
AcDbTextStyleTableRecord
  2
LABEL
 70
0
 40
0.0
 41
0.9
 50
0.0
 71
0
 42
2.5
  3
Arial.ttf
  4

  0
STYLE
  5
8D
330
5
100
AcDbSymbolTableRecord
100
AcDbTextStyleTableRecord
  2
NOTE
 70
0
 40
0.0
 41
0.85
 50
0.0
 71
0
 42
2.5
  3
Arial.ttf
  4

  0
STYLE
  5
8E
330
5
100
AcDbSymbolTableRecord
100
AcDbTextStyleTableRecord
  2
DIM
 70
0
 40
0.0
 41
0.9
 50
0.0
 71
0
 42
2.5
  3
Arial.ttf
  4

  0
ENDTAB
  0
TABLE
  2
VIEW
  5
7
330
0
100
AcDbSymbolTable
 70
0
  0
ENDTAB
  0
TABLE
  2
UCS
  5
6
330
0
100
AcDbSymbolTable
 70
0
  0
ENDTAB
  0
TABLE
  2
APPID
  5
3
330
0
100
AcDbSymbolTable
 70
3
  0
APPID
  5
2A
330
3
100
AcDbSymbolTableRecord
100
AcDbRegAppTableRecord
  2
ACAD
 70
0
  0
APPID
  5
15F
330
3
100
AcDbSymbolTableRecord
100
AcDbRegAppTableRecord
  2
HATCHBACKGROUNDCOLOR
 70
0
  0
APPID
  5
160
330
3
100
AcDbSymbolTableRecord
100
AcDbRegAppTableRecord
  2
EZDXF
 70
0
  0
ENDTAB
  0
TABLE
  2
DIMSTYLE
  5
4
330
0
100
AcDbSymbolTable
 70
13
100
AcDbDimStyleTable
  0
DIMSTYLE
105
2B
330
4
100
AcDbSymbolTableRecord
100
AcDbDimStyleTableRecord
  2
Standard
 70
0
 40
1.0
 41
2.5
 42
0.625
 43
3.75
 44
1.25
 45
0.0
 46
0.0
 47
0.0
 48
0.0
 49
2.5
140
2.5
141
2.5
142
0.0
143
0.03937007874
144
1.0
145
0.0
146
1.0
147
0.625
148
0.0
 69
0
 70
0
 71
0
 72
0
 73
0
 74
0
 75
0
 76
0
 77
1
 78
8
 79
3
170
0
171
3
172
1
173
0
174
0
175
0
176
0
177
0
178
0
179
2
271
2
272
2
273
2
274
3
275
0
276
0
277
2
278
44
279
0
280
0
281
0
282
0
283
0
284
8
285
0
286
0
288
0
289
3
290
0
371
-2
372
-2
  0
DIMSTYLE
105
73
330
4
100
AcDbSymbolTableRecord
100
AcDbDimStyleTableRecord
  2
EZDXF
 70
0
 40
1.0
 41
0.175
 42
0.125
 43
3.75
 44
0.375
 45
0.0
 46
0.0
 47
0.0
 48
0.0
 49
2.5
140
0.25
141
2.5
142
0.0
143
0.03937007874
144
100.0
145
0.0
146
0.5
147
0.1
148
0.0
 69
0
 70
0
 71
0
 72
0
 73
0
 74
0
 75
0
 76
0
 77
1
 78
12
 79
3
170
0
171
3
172
1
173
0
174
0
175
0
176
0
177
0
178
0
179
2
271
2
272
2
273
2
274
3
275
0
276
0
277
2
278
46
279
2
280
0
281
0
282
0
283
0
284
8
285
0
286
0
288
1
289
3
290
0
340
4C
342
74
371
-2
372
-2
  0
DIMSTYLE
105
7C
330
4
100
AcDbSymbolTableRecord
100
AcDbDimStyleTableRecord
  2
EZ_M_100_H25_CM
 70
0
 40
1.0
 41
0.25
 42
0.125
 43
3.75
 44
0.375
 45
0.0
 46
0.0
 47
0.0
 48
0.0
 49
2.5
140
0.25
141
2.5
142
0.125
143
0.03937007874
144
100.0
145
0.0
146
0.5
147
0.1
148
0.0
 69
0
 70
0
 71
0
 72
0
 73
0
 74
0
 75
0
 76
0
 77
1
 78
12
 79
3
170
0
171
3
172
1
173
0
174
0
175
0
176
0
177
0
178
0
179
2
271
2
272
2
273
2
274
3
275
0
276
0
277
2
278
46
279
2
280
0
281
0
282
0
283
0
284
8
285
0
286
0
288
1
289
3
290
0
340
4C
371
-2
372
-2
  0
DIMSTYLE
105
7D
330
4
100
AcDbSymbolTableRecord
100
AcDbDimStyleTableRecord
  2
EZ_M_50_H25_CM
 70
0
 40
1.0
 41
0.125
 42
0.0625
 43
3.75
 44
0.1875
 45
0.0
 46
0.0
 47
0.0
 48
0.0
 49
2.5
140
0.125
141
2.5
142
0.0625
143
0.03937007874
144
100.0
145
0.0
146
0.5
147
0.05
148
0.0
 69
0
 70
0
 71
0
 72
0
 73
0
 74
0
 75
0
 76
0
 77
1
 78
12
 79
3
170
0
171
3
172
1
173
0
174
0
175
0
176
0
177
0
178
0
179
2
271
2
272
2
273
2
274
3
275
0
276
0
277
2
278
46
279
2
280
0
281
0
282
0
283
0
284
8
285
0
286
0
288
1
289
3
290
0
340
4C
371
-2
372
-2
  0
DIMSTYLE
105
7E
330
4
100
AcDbSymbolTableRecord
100
AcDbDimStyleTableRecord
  2
EZ_M_25_H25_CM
 70
0
 40
1.0
 41
0.0625
 42
0.03125
 43
3.75
 44
0.09375
 45
0.0
 46
0.0
 47
0.0
 48
0.0
 49
2.5
140
0.0625
141
2.5
142
0.03125
143
0.03937007874
144
100.0
145
0.0
146
0.5
147
0.025
148
0.0
 69
0
 70
0
 71
0
 72
0
 73
0
 74
0
 75
0
 76
0
 77
1
 78
12
 79
3
170
0
171
3
172
1
173
0
174
0
175
0
176
0
177
0
178
0
179
2
271
2
272
2
273
2
274
3
275
0
276
0
277
2
278
46
279
2
280
0
281
0
282
0
283
0
284
8
285
0
286
0
288
1
289
3
290
0
340
4C
371
-2
372
-2
  0
DIMSTYLE
105
7F
330
4
100
AcDbSymbolTableRecord
100
AcDbDimStyleTableRecord
  2
EZ_M_20_H25_CM
 70
0
 40
1.0
 41
0.05
 42
0.025
 43
3.75
 44
0.07500000000000001
 45
0.0
 46
0.0
 47
0.0
 48
0.0
 49
2.5
140
0.05
141
2.5
142
0.025
143
0.03937007874
144
100.0
145
0.0
146
0.5
147
0.020000000000000004
148
0.0
 69
0
 70
0
 71
0
 72
0
 73
0
 74
0
 75
0
 76
0
 77
1
 78
12
 79
3
170
0
171
3
172
1
173
0
174
0
175
0
176
0
177
0
178
0
179
2
271
2
272
2
273
2
274
3
275
0
276
0
277
2
278
46
279
2
280
0
281
0
282
0
283
0
284
8
285
0
286
0
288
1
289
3
290
0
340
4C
371
-2
372
-2
  0
DIMSTYLE
105
80
330
4
100
AcDbSymbolTableRecord
100
AcDbDimStyleTableRecord
  2
EZ_M_10_H25_CM
 70
0
 40
1.0
 41
0.025
 42
0.0125
 43
3.75
 44
0.037500000000000006
 45
0.0
 46
0.0
 47
0.0
 48
0.0
 49
2.5
140
0.025
141
2.5
142
0.0125
143
0.03937007874
144
100.0
145
0.0
146
0.5
147
0.010000000000000002
148
0.0
 69
0
 70
0
 71
0
 72
0
 73
0
 74
0
 75
0
 76
0
 77
1
 78
12
 79
3
170
0
171
3
172
1
173
0
174
0
175
0
176
0
177
0
178
0
179
2
271
2
272
2
273
2
274
3
275
0
276
0
277
2
278
46
279
2
280
0
281
0
282
0
283
0
284
8
285
0
286
0
288
1
289
3
290
0
340
4C
371
-2
372
-2
  0
DIMSTYLE
105
81
330
4
100
AcDbSymbolTableRecord
100
AcDbDimStyleTableRecord
  2
EZ_M_5_H25_CM
 70
0
 40
1.0
 41
0.0125
 42
0.00625
 43
3.75
 44
0.018750000000000003
 45
0.0
 46
0.0
 47
0.0
 48
0.0
 49
2.5
140
0.0125
141
2.5
142
0.00625
143
0.03937007874
144
100.0
145
0.0
146
0.5
147
0.005000000000000001
148
0.0
 69
0
 70
0
 71
0
 72
0
 73
0
 74
0
 75
0
 76
0
 77
1
 78
12
 79
3
170
0
171
3
172
1
173
0
174
0
175
0
176
0
177
0
178
0
179
2
271
2
272
2
273
2
274
3
275
0
276
0
277
2
278
46
279
2
280
0
281
0
282
0
283
0
284
8
285
0
286
0
288
1
289
3
290
0
340
4C
371
-2
372
-2
  0
DIMSTYLE
105
82
330
4
100
AcDbSymbolTableRecord
100
AcDbDimStyleTableRecord
  2
EZ_M_1_H25_CM
 70
0
 40
1.0
 41
0.0025
 42
0.00125
 43
3.75
 44
0.00375
 45
0.0
 46
0.0
 47
0.0
 48
0.0
 49
2.5
140
0.0025
141
2.5
142
0.00125
143
0.03937007874
144
100.0
145
0.0
146
0.5
147
0.001
148
0.0
 69
0
 70
0
 71
0
 72
0
 73
0
 74
0
 75
0
 76
0
 77
1
 78
12
 79
3
170
0
171
3
172
1
173
0
174
0
175
0
176
0
177
0
178
0
179
2
271
2
272
2
273
2
274
3
275
0
276
0
277
2
278
46
279
2
280
0
281
0
282
0
283
0
284
8
285
0
286
0
288
1
289
3
290
0
340
4C
371
-2
372
-2
  0
DIMSTYLE
105
83
330
4
100
AcDbSymbolTableRecord
100
AcDbDimStyleTableRecord
  2
EZ_RADIUS
 70
0
 40
1.0
 41
0.25
 42
0.125
 43
3.75
 44
0.375
 45
0.0
 46
0.0
 47
0.0
 48
0.0
 49
2.5
140
0.25
141
0.0
142
0.0
143
0.03937007874
144
100.0
145
0.0
146
0.5
147
0.1
148
0.0
 69
0
 70
0
 71
0
 72
0
 73
0
 74
0
 75
0
 76
0
 77
1
 78
12
 79
3
170
0
171
3
172
0
173
0
174
0
175
0
176
0
177
0
178
0
179
2
271
2
272
2
273
2
274
3
275
0
276
0
277
2
278
46
279
1
280
0
281
0
282
0
283
0
284
8
285
0
286
0
288
1
289
3
290
0
340
4C
342
84
371
-2
372
-2
  0
DIMSTYLE
105
88
330
4
100
AcDbSymbolTableRecord
100
AcDbDimStyleTableRecord
  2
EZ_RADIUS_INSIDE
 70
0
 40
1.0
 41
0.25
 42
0.125
 43
3.75
 44
0.375
 45
0.0
 46
0.0
 47
0.0
 48
0.0
 49
2.5
140
0.25
141
0.0
142
0.0
143
0.03937007874
144
100.0
145
0.0
146
0.5
147
0.1
148
0.0
 69
0
 70
0
 71
0
 72
0
 73
0
 74
0
 75
0
 76
0
 77
0
 78
12
 79
3
170
0
171
3
172
0
173
0
174
1
175
0
176
0
177
0
178
0
179
2
271
2
272
2
273
2
274
3
275
0
276
0
277
2
278
46
279
0
280
0
281
0
282
0
283
0
284
8
285
0
286
0
288
1
289
0
290
0
340
4C
342
84
371
-2
372
-2
  0
DIMSTYLE
105
89
330
4
100
AcDbSymbolTableRecord
100
AcDbDimStyleTableRecord
  2
EZ_CURVED
 70
0
 40
1.0
 41
0.25
 42
0.125
 43
3.75
 44
0.375
 45
0.0
 46
0.0
 47
0.0
 48
0.0
 49
2.5
140
0.25
141
2.5
142
0.0
143
0.03937007874
144
100.0
145
0.0
146
0.5
147
0.1
148
0.0
 69
0
 70
0
 71
0
 72
0
 73
0
 74
0
 75
0
 76
0
 77
1
 78
12
 79
2
 90
2
170
0
171
3
172
1
173
0
174
0
175
0
176
0
177
0
178
0
179
2
271
2
272
2
273
2
274
3
275
0
276
0
277
2
278
46
279
2
280
0
281
0
282
0
283
0
284
8
285
0
286
0
288
1
289
3
290
0
340
4C
371
-2
372
-2
  0
DIMSTYLE
105
8F
330
4
100
AcDbSymbolTableRecord
100
AcDbDimStyleTableRecord
  2
ARCH
 70
0
 40
1.0
 41
2.5
 42
1.0
 43
3.75
 44
1.5
 45
0.0
 46
0.0
 47
0.0
 48
0.0
 49
2.5
140
3.0
141
2.5
142
0.0
143
0.03937007874
144
1.0
145
0.0
146
1.0
147
1.0
148
0.0
 69
0
 70
0
 71
0
 72
0
 73
0
 74
0
 75
0
 76
0
 77
1
 78
8
 79
3
170
0
171
3
172
1
173
0
174
0
175
0
176
0
177
0
178
0
179
2
271
0
272
2
273
2
274
3
275
0
276
0
277
2
278
44
279
0
280
0
281
0
282
0
283
0
284
8
285
0
286
0
288
0
289
3
290
0
340
8E
371
-2
372
-2
  0
ENDTAB
  0
TABLE
  2
BLOCK_RECORD
  5
9
330
0
100
AcDbSymbolTable
 70
16
  0
BLOCK_RECORD
  5
17
330
9
100
AcDbSymbolTableRecord
100
AcDbBlockTableRecord
  2
*Model_Space
340
1A
 70
0
280
1
281
0
  0
BLOCK_RECORD
  5
1B
330
9
100
AcDbSymbolTableRecord
100
AcDbBlockTableRecord
  2
*Paper_Space
340
1E
 70
0
280
1
281
0
  0
BLOCK_RECORD
  5
74
330
9
100
AcDbSymbolTableRecord
100
AcDbBlockTableRecord
  2
_ARCHTICK
340
0
 70
0
280
1
281
0
  0
BLOCK_RECORD
  5
78
330
9
100
AcDbSymbolTableRecord
100
AcDbBlockTableRecord
  2
_CLOSEDFILLED
340
0
 70
0
280
1
281
0
  0
BLOCK_RECORD
  5
84
330
9
100
AcDbSymbolTableRecord
100
AcDbBlockTableRecord
  2
_CLOSEDBLANK
340
0
 70
0
280
1
281
0
  0
BLOCK_RECORD
  5
CD
330
9
100
AcDbSymbolTableRecord
100
AcDbBlockTableRecord
  2
TREE_PLAN
340
0
 70
0
280
1
281
0
  0
BLOCK_RECORD
  5
D6
330
9
100
AcDbSymbolTableRecord
100
AcDbBlockTableRecord
  2
TREE_SMALL
340
0
 70
0
280
1
281
0
  0
BLOCK_RECORD
  5
DB
330
9
100
AcDbSymbolTableRecord
100
AcDbBlockTableRecord
  2
TREE_SECTION
340
0
 70
0
280
1
281
0
  0
BLOCK_RECORD
  5
E0
330
9
100
AcDbSymbolTableRecord
100
AcDbBlockTableRecord
  2
NORTH_ARROW
340
0
 70
0
280
1
281
0
  0
BLOCK_RECORD
  5
E6
330
9
100
AcDbSymbolTableRecord
100
AcDbBlockTableRecord
  2
SCALE_BAR_1000
340
0
 70
0
280
1
281
0
  0
BLOCK_RECORD
  5
F2
330
9
100
AcDbSymbolTableRecord
100
AcDbBlockTableRecord
  2
BRT_STATION
340
0
 70
0
280
1
281
0
  0
BLOCK_RECORD
  5
F8
330
9
100
AcDbSymbolTableRecord
100
AcDbBlockTableRecord
  2
ROUNDABOUT
340
0
 70
0
280
1
281
0
  0
BLOCK_RECORD
  5
FE
330
9
100
AcDbSymbolTableRecord
100
AcDbBlockTableRecord
  2
CAR_PLAN
340
0
 70
0
280
1
281
0
  0
BLOCK_RECORD
  5
104
330
9
100
AcDbSymbolTableRecord
100
AcDbBlockTableRecord
  2
PERSON_SECTION
340
0
 70
0
280
1
281
0
  0
BLOCK_RECORD
  5
10D
330
9
100
AcDbSymbolTableRecord
100
AcDbBlockTableRecord
  2
BLDG_RECT
340
0
 70
0
280
1
281
0
  0
BLOCK_RECORD
  5
112
330
9
100
AcDbSymbolTableRecord
100
AcDbBlockTableRecord
  2
MOSQUE
340
0
 70
0
280
1
281
0
  0
ENDTAB
  0
ENDSEC
  0
SECTION
  2
BLOCKS
  0
BLOCK
  5
18
330
17
100
AcDbEntity
  8
0
100
AcDbBlockBegin
  2
*Model_Space
 70
0
 10
0.0
 20
0.0
 30
0.0
  3
*Model_Space
  1

  0
ENDBLK
  5
19
330
17
100
AcDbEntity
  8
0
100
AcDbBlockEnd
  0
BLOCK
  5
1C
330
1B
100
AcDbEntity
  8
0
100
AcDbBlockBegin
  2
*Paper_Space
 70
0
 10
0.0
 20
0.0
 30
0.0
  3
*Paper_Space
  1

  0
ENDBLK
  5
1D
330
1B
100
AcDbEntity
  8
0
100
AcDbBlockEnd
  0
BLOCK
  5
75
330
74
100
AcDbEntity
  8
0
100
AcDbBlockBegin
  2
_ARCHTICK
 70
0
 10
0.0
 20
0.0
 30
0.0
  3
_ARCHTICK
  1

  0
LWPOLYLINE
  5
77
330
74
100
AcDbEntity
  8
0
  6
BYBLOCK
 62
0
100
AcDbPolyline
 90
2
 70
0
 43
0.15
 10
-0.5
 20
-0.5
 10
0.5
 20
0.5
  0
ENDBLK
  5
76
330
74
100
AcDbEntity
  8
0
100
AcDbBlockEnd
  0
BLOCK
  5
79
330
78
100
AcDbEntity
  8
0
100
AcDbBlockBegin
  2
_CLOSEDFILLED
 70
0
 10
0.0
 20
0.0
 30
0.0
  3
_CLOSEDFILLED
  1

  0
SOLID
  5
7B
330
78
100
AcDbEntity
  8
0
  6
BYBLOCK
 62
0
100
AcDbTrace
 10
-1.0
 20
0.16439898372402537
 30
0.0
 11
0.0
 21
0.0
 31
0.0
 12
-1.0
 22
-0.16439898372402537
 32
0.0
 13
-1.0
 23
-0.16439898372402537
 33
0.0
  0
ENDBLK
  5
7A
330
78
100
AcDbEntity
  8
0
100
AcDbBlockEnd
  0
BLOCK
  5
85
330
84
100
AcDbEntity
  8
0
100
AcDbBlockBegin
  2
_CLOSEDBLANK
 70
0
 10
0.0
 20
0.0
 30
0.0
  3
_CLOSEDBLANK
  1

  0
LWPOLYLINE
  5
87
330
84
100
AcDbEntity
  8
0
  6
BYBLOCK
 62
0
100
AcDbPolyline
 90
3
 70
1
 10
-1.0
 20
0.16439898372402537
 10
0.0
 20
0.0
 10
-1.0
 20
-0.16439898372402537
  0
ENDBLK
  5
86
330
84
100
AcDbEntity
  8
0
100
AcDbBlockEnd
  0
BLOCK
  5
CE
330
CD
100
AcDbEntity
  8
0
100
AcDbBlockBegin
  2
TREE_PLAN
 70
0
 10
0.0
 20
0.0
 30
0.0
  3
TREE_PLAN
  1

  0
CIRCLE
  5
D0
330
CD
100
AcDbEntity
  8
0
 62
82
370
18
100
AcDbCircle
 10
0.0
 20
0.0
 30
0.0
 40
3.0
  0
CIRCLE
  5
D1
330
CD
100
AcDbEntity
  8
0
 62
94
370
13
100
AcDbCircle
 10
0.0
 20
0.0
 30
0.0
 40
0.5
  0
LINE
  5
D2
330
CD
100
AcDbEntity
  8
0
 62
82
370
5
100
AcDbLine
 10
-2.2
 20
-0.0
 30
0.0
 11
2.2
 21
0.0
 31
0.0
  0
LINE
  5
D3
330
CD
100
AcDbEntity
  8
0
 62
82
370
5
100
AcDbLine
 10
-1.5556349186104048
 20
-1.5556349186104046
 30
0.0
 11
1.5556349186104048
 21
1.5556349186104046
 31
0.0
  0
LINE
  5
D4
330
CD
100
AcDbEntity
  8
0
 62
82
370
5
100
AcDbLine
 10
-1.3471114790620887e-16
 20
-2.2
 30
0.0
 11
1.3471114790620887e-16
 21
2.2
 31
0.0
  0
LINE
  5
D5
330
CD
100
AcDbEntity
  8
0
 62
82
370
5
100
AcDbLine
 10
1.5556349186104046
 20
-1.5556349186104048
 30
0.0
 11
-1.5556349186104046
 21
1.5556349186104048
 31
0.0
  0
ENDBLK
  5
CF
330
CD
100
AcDbEntity
  8
0
100
AcDbBlockEnd
  0
BLOCK
  5
D7
330
D6
100
AcDbEntity
  8
0
100
AcDbBlockBegin
  2
TREE_SMALL
 70
0
 10
0.0
 20
0.0
 30
0.0
  3
TREE_SMALL
  1

  0
CIRCLE
  5
D9
330
D6
100
AcDbEntity
  8
0
 62
82
370
13
100
AcDbCircle
 10
0.0
 20
0.0
 30
0.0
 40
1.5
  0
CIRCLE
  5
DA
330
D6
100
AcDbEntity
  8
0
 62
94
370
9
100
AcDbCircle
 10
0.0
 20
0.0
 30
0.0
 40
0.3
  0
ENDBLK
  5
D8
330
D6
100
AcDbEntity
  8
0
100
AcDbBlockEnd
  0
BLOCK
  5
DC
330
DB
100
AcDbEntity
  8
0
100
AcDbBlockBegin
  2
TREE_SECTION
 70
0
 10
0.0
 20
0.0
 30
0.0
  3
TREE_SECTION
  1

  0
LWPOLYLINE
  5
DE
330
DB
100
AcDbEntity
  8
0
 62
46
370
18
100
AcDbPolyline
 90
4
 70
1
 10
-0.3
 20
0.0
 10
-0.3
 20
3.0
 10
0.3
 20
3.0
 10
0.3
 20
0.0
  0
LWPOLYLINE
  5
DF
330
DB
100
AcDbEntity
  8
0
 62
82
370
18
100
AcDbPolyline
 90
4
 70
1
 10
-2.5
 20
3.0
 42
0.5
 10
0.0
 20
7.0
 42
0.5
 10
2.5
 20
3.0
 42
0.5
 10
0.0
 20
3.5
 42
-0.3
  0
ENDBLK
  5
DD
330
DB
100
AcDbEntity
  8
0
100
AcDbBlockEnd
  0
BLOCK
  5
E1
330
E0
100
AcDbEntity
  8
0
100
AcDbBlockBegin
  2
NORTH_ARROW
 70
0
 10
0.0
 20
0.0
 30
0.0
  3
NORTH_ARROW
  1

  0
LWPOLYLINE
  5
E3
330
E0
100
AcDbEntity
  8
0
 62
7
370
35
100
AcDbPolyline
 90
4
 70
1
 10
0.0
 20
0.0
 10
-4.0
 20
-12.0
 10
0.0
 20
-8.0
 10
4.0
 20
-12.0
  0
HATCH
  5
E4
330
E0
100
AcDbEntity
  8
0
 62
7
100
AcDbHatch
 10
0.0
 20
0.0
 30
0.0
210
0.0
220
0.0
230
1.0
  2
SOLID
 70
1
 71
0
 91
1
 92
3
 72
0
 73
1
 93
3
 10
0.0
 20
0.0
 10
4.0
 20
-12.0
 10
0.0
 20
-8.0
 97
0
 75
0
 76
1
 98
0
  0
TEXT
  5
E5
330
E0
100
AcDbEntity
  8
0
 62
7
100
AcDbText
 10
-2.5
 20
2.0
 30
0.0
 40
5.0
  1
N
  7
TITLE
 11
-2.5
 21
2.0
 31
0.0
100
AcDbText
 73
1
  0
ENDBLK
  5
E2
330
E0
100
AcDbEntity
  8
0
100
AcDbBlockEnd
  0
BLOCK
  5
E7
330
E6
100
AcDbEntity
  8
0
100
AcDbBlockBegin
  2
SCALE_BAR_1000
 70
0
 10
0.0
 20
0.0
 30
0.0
  3
SCALE_BAR_1000
  1

  0
HATCH
  5
E9
330
E6
100
AcDbEntity
  8
0
 62
7
100
AcDbHatch
 10
0.0
 20
0.0
 30
0.0
210
0.0
220
0.0
230
1.0
  2
SOLID
 70
1
 71
0
 91
1
 92
3
 72
0
 73
1
 93
4
 10
0.0
 20
0.0
 10
50.0
 20
0.0
 10
50.0
 20
4.0
 10
0.0
 20
4.0
 97
0
 75
0
 76
1
 98
0
  0
LWPOLYLINE
  5
EA
330
E6
100
AcDbEntity
  8
0
 62
7
370
18
100
AcDbPolyline
 90
4
 70
1
 10
0.0
 20
0.0
 10
50.0
 20
0.0
 10
50.0
 20
4.0
 10
0.0
 20
4.0
  0
LWPOLYLINE
  5
EB
330
E6
100
AcDbEntity
  8
0
 62
7
370
18
100
AcDbPolyline
 90
4
 70
1
 10
50.0
 20
0.0
 10
100.0
 20
0.0
 10
100.0
 20
4.0
 10
50.0
 20
4.0
  0
HATCH
  5
EC
330
E6
100
AcDbEntity
  8
0
 62
7
100
AcDbHatch
 10
0.0
 20
0.0
 30
0.0
210
0.0
220
0.0
230
1.0
  2
SOLID
 70
1
 71
0
 91
1
 92
3
 72
0
 73
1
 93
4
 10
100.0
 20
0.0
 10
150.0
 20
0.0
 10
150.0
 20
4.0
 10
100.0
 20
4.0
 97
0
 75
0
 76
1
 98
0
  0
LWPOLYLINE
  5
ED
330
E6
100
AcDbEntity
  8
0
 62
7
370
18
100
AcDbPolyline
 90
4
 70
1
 10
100.0
 20
0.0
 10
150.0
 20
0.0
 10
150.0
 20
4.0
 10
100.0
 20
4.0
  0
LWPOLYLINE
  5
EE
330
E6
100
AcDbEntity
  8
0
 62
7
370
18
100
AcDbPolyline
 90
4
 70
1
 10
150.0
 20
0.0
 10
200.0
 20
0.0
 10
200.0
 20
4.0
 10
150.0
 20
4.0
  0
TEXT
  5
EF
330
E6
100
AcDbEntity
  8
0
 62
7
100
AcDbText
 10
0.0
 20
-4.0
 30
0.0
 40
3.0
  1
0
  7
LABEL
 72
1
 11
0.0
 21
-4.0
 31
0.0
100
AcDbText
 73
2
  0
TEXT
  5
F0
330
E6
100
AcDbEntity
  8
0
 62
7
100
AcDbText
 10
100.0
 20
-4.0
 30
0.0
 40
3.0
  1
100m
  7
LABEL
 72
1
 11
100.0
 21
-4.0
 31
0.0
100
AcDbText
 73
2
  0
TEXT
  5
F1
330
E6
100
AcDbEntity
  8
0
 62
7
100
AcDbText
 10
200.0
 20
-4.0
 30
0.0
 40
3.0
  1
200m
  7
LABEL
 72
1
 11
200.0
 21
-4.0
 31
0.0
100
AcDbText
 73
2
  0
ENDBLK
  5
E8
330
E6
100
AcDbEntity
  8
0
100
AcDbBlockEnd
  0
BLOCK
  5
F3
330
F2
100
AcDbEntity
  8
0
100
AcDbBlockBegin
  2
BRT_STATION
 70
0
 10
0.0
 20
0.0
 30
0.0
  3
BRT_STATION
  1

  0
LWPOLYLINE
  5
F5
330
F2
100
AcDbEntity
  8
0
 62
1
370
35
100
AcDbPolyline
 90
4
 70
1
 10
-8.0
 20
-4.0
 10
8.0
 20
-4.0
 10
8.0
 20
4.0
 10
-8.0
 20
4.0
  0
LINE
  5
F6
330
F2
100
AcDbEntity
  8
0
 62
1
370
18
100
AcDbLine
 10
-8.0
 20
0.0
 30
0.0
 11
8.0
 21
0.0
 31
0.0
  0
TEXT
  5
F7
330
F2
100
AcDbEntity
  8
0
 62
1
100
AcDbText
 10
0.0
 20
-1.5
 30
0.0
 40
3.0
  1
BRT
  7
LABEL
 72
1
 11
0.0
 21
-1.5
 31
0.0
100
AcDbText
 73
2
  0
ENDBLK
  5
F4
330
F2
100
AcDbEntity
  8
0
100
AcDbBlockEnd
  0
BLOCK
  5
F9
330
F8
100
AcDbEntity
  8
0
100
AcDbBlockBegin
  2
ROUNDABOUT
 70
0
 10
0.0
 20
0.0
 30
0.0
  3
ROUNDABOUT
  1

  0
CIRCLE
  5
FB
330
F8
100
AcDbEntity
  8
0
 62
7
370
35
100
AcDbCircle
 10
0.0
 20
0.0
 30
0.0
 40
15.0
  0
CIRCLE
  5
FC
330
F8
100
AcDbEntity
  8
0
 62
3
370
25
100
AcDbCircle
 10
0.0
 20
0.0
 30
0.0
 40
8.0
  0
HATCH
  5
FD
330
F8
100
AcDbEntity
  8
0
 62
82
100
AcDbHatch
 10
0.0
 20
0.0
 30
0.0
210
0.0
220
0.0
230
1.0
  2
SOLID
 70
1
 71
0
 91
1
 92
1
 93
1
 72
2
 10
0.0
 20
0.0
 40
8.0
 50
0.0
 51
360.0
 73
1
 97
0
 75
0
 76
1
 98
0
  0
ENDBLK
  5
FA
330
F8
100
AcDbEntity
  8
0
100
AcDbBlockEnd
  0
BLOCK
  5
FF
330
FE
100
AcDbEntity
  8
0
100
AcDbBlockBegin
  2
CAR_PLAN
 70
0
 10
0.0
 20
0.0
 30
0.0
  3
CAR_PLAN
  1

  0
LWPOLYLINE
  5
101
330
FE
100
AcDbEntity
  8
0
 62
8
370
13
100
AcDbPolyline
 90
4
 70
1
 10
0.0
 20
0.0
 10
2.5
 20
0.0
 10
2.5
 20
5.0
 10
0.0
 20
5.0
  0
LWPOLYLINE
  5
102
330
FE
100
AcDbEntity
  8
0
 62
8
370
9
100
AcDbPolyline
 90
4
 70
1
 10
0.3
 20
0.5
 10
2.2
 20
0.5
 10
2.2
 20
1.5
 10
0.3
 20
1.5
  0
LWPOLYLINE
  5
103
330
FE
100
AcDbEntity
  8
0
 62
8
370
9
100
AcDbPolyline
 90
4
 70
1
 10
0.3
 20
3.5
 10
2.2
 20
3.5
 10
2.2
 20
4.5
 10
0.3
 20
4.5
  0
ENDBLK
  5
100
330
FE
100
AcDbEntity
  8
0
100
AcDbBlockEnd
  0
BLOCK
  5
105
330
104
100
AcDbEntity
  8
0
100
AcDbBlockBegin
  2
PERSON_SECTION
 70
0
 10
0.0
 20
0.0
 30
0.0
  3
PERSON_SECTION
  1

  0
CIRCLE
  5
107
330
104
100
AcDbEntity
  8
0
 62
7
370
18
100
AcDbCircle
 10
0.0
 20
1.6
 30
0.0
 40
0.2
  0
LINE
  5
108
330
104
100
AcDbEntity
  8
0
 62
7
370
18
100
AcDbLine
 10
0.0
 20
1.4
 30
0.0
 11
0.0
 21
0.7
 31
0.0
  0
LINE
  5
109
330
104
100
AcDbEntity
  8
0
 62
7
370
18
100
AcDbLine
 10
0.0
 20
0.7
 30
0.0
 11
-0.3
 21
0.0
 31
0.0
  0
LINE
  5
10A
330
104
100
AcDbEntity
  8
0
 62
7
370
18
100
AcDbLine
 10
0.0
 20
0.7
 30
0.0
 11
0.3
 21
0.0
 31
0.0
  0
LINE
  5
10B
330
104
100
AcDbEntity
  8
0
 62
7
370
13
100
AcDbLine
 10
0.0
 20
1.2
 30
0.0
 11
-0.25
 21
0.9
 31
0.0
  0
LINE
  5
10C
330
104
100
AcDbEntity
  8
0
 62
7
370
13
100
AcDbLine
 10
0.0
 20
1.2
 30
0.0
 11
0.25
 21
0.9
 31
0.0
  0
ENDBLK
  5
106
330
104
100
AcDbEntity
  8
0
100
AcDbBlockEnd
  0
BLOCK
  5
10E
330
10D
100
AcDbEntity
  8
0
100
AcDbBlockBegin
  2
BLDG_RECT
 70
2
 10
0.0
 20
0.0
 30
0.0
  3
BLDG_RECT
  1

  0
LWPOLYLINE
  5
110
330
10D
100
AcDbEntity
  8
0
 62
7
370
35
100
AcDbPolyline
 90
4
 70
1
 10
0.0
 20
0.0
 10
1.0
 20
0.0
 10
1.0
 20
1.0
 10
0.0
 20
1.0
  0
ATTDEF
  5
111
330
10D
100
AcDbEntity
  8
0
 62
7
100
AcDbText
 10
0.1
 20
-0.15
 30
0.0
 40
0.12
  1

100
AcDbAttributeDefinition
  3

  2
TYPE
 70
0
  0
ENDBLK
  5
10F
330
10D
100
AcDbEntity
  8
0
100
AcDbBlockEnd
  0
BLOCK
  5
113
330
112
100
AcDbEntity
  8
0
100
AcDbBlockBegin
  2
MOSQUE
 70
0
 10
0.0
 20
0.0
 30
0.0
  3
MOSQUE
  1

  0
CIRCLE
  5
115
330
112
100
AcDbEntity
  8
0
 62
170
370
35
100
AcDbCircle
 10
0.0
 20
0.0
 30
0.0
 40
5.0
  0
ARC
  5
116
330
112
100
AcDbEntity
  8
0
 62
170
370
25
100
AcDbCircle
 10
0.0
 20
2.0
 30
0.0
 40
2.0
100
AcDbArc
 50
30.0
 51
330.0
  0
CIRCLE
  5
117
330
112
100
AcDbEntity
  8
0
 62
170
370
18
100
AcDbCircle
 10
1.0
 20
3.5
 30
0.0
 40
0.5
  0
ENDBLK
  5
114
330
112
100
AcDbEntity
  8
0
100
AcDbBlockEnd
  0
ENDSEC
  0
SECTION
  2
ENTITIES
  0
LWPOLYLINE
  5
118
330
17
100
AcDbEntity
  8
BORDER
100
AcDbPolyline
 90
4
 70
1
 10
-50.0
 20
-100.0
 10
2150.0
 20
-100.0
 10
2150.0
 20
1550.0
 10
-50.0
 20
1550.0
  0
LWPOLYLINE
  5
119
330
17
100
AcDbEntity
  8
TITLEBLOCK
100
AcDbPolyline
 90
4
 70
1
 10
1650.0
 20
-100.0
 10
2150.0
 20
-100.0
 10
2150.0
 20
50.0
 10
1650.0
 20
50.0
  0
LINE
  5
11A
330
17
100
AcDbEntity
  8
TITLEBLOCK
100
AcDbLine
 10
1650.0
 20
-50.0
 30
0.0
 11
2150.0
 21
-50.0
 31
0.0
  0
LINE
  5
11B
330
17
100
AcDbEntity
  8
TITLEBLOCK
100
AcDbLine
 10
1650.0
 20
0.0
 30
0.0
 11
2150.0
 21
0.0
 31
0.0
  0
LINE
  5
11C
330
17
100
AcDbEntity
  8
TITLEBLOCK
100
AcDbLine
 10
1900.0
 20
-100.0
 30
0.0
 11
1900.0
 21
-50.0
 31
0.0
  0
TEXT
  5
11D
330
17
100
AcDbEntity
  8
TEXT_TITLE
100
AcDbText
 10
1900.0
 20
25.0
 30
0.0
 40
12.0
  1
AL-TAL NEW CITY
  7
TITLE
 72
1
 11
1900.0
 21
25.0
 31
0.0
100
AcDbText
 73
2
  0
TEXT
  5
11E
330
17
100
AcDbEntity
  8
TEXT_TITLE
100
AcDbText
 10
1900.0
 20
8.0
 30
0.0
 40
6.0
  1
Mandatory Distribution Zone Replanning Competition
  7
SUBTITLE
 72
1
 11
1900.0
 21
8.0
 31
0.0
100
AcDbText
 73
2
  0
TEXT
  5
11F
330
17
100
AcDbEntity
  8
TEXT_TITLE
100
AcDbText
 10
1900.0
 20
-20.0
 30
0.0
 40
10.0
  1
TOPOGRAPHIC PLAN
  7
TITLE
 72
1
 11
1900.0
 21
-20.0
 31
0.0
100
AcDbText
 73
2
  0
TEXT
  5
120
330
17
100
AcDbEntity
  8
TEXT_NOTE
100
AcDbText
 10
1900.0
 20
-35.0
 30
0.0
 40
5.0
  1
Contour Lines 5m Interval | Water Channels | Slope Direction
  7
NOTE
 72
1
 11
1900.0
 21
-35.0
 31
0.0
100
AcDbText
 73
2
  0
TEXT
  5
121
330
17
100
AcDbEntity
  8
TEXT_LABEL
100
AcDbText
 10
1775.0
 20
-70.0
 30
0.0
 40
5.0
  1
Scale: 1:2000
  7
LABEL
 72
1
 11
1775.0
 21
-70.0
 31
0.0
100
AcDbText
 73
2
  0
TEXT
  5
122
330
17
100
AcDbEntity
  8
TEXT_NOTE
100
AcDbText
 10
1775.0
 20
-85.0
 30
0.0
 40
4.0
  1
Date: March 2026
  7
NOTE
 72
1
 11
1775.0
 21
-85.0
 31
0.0
100
AcDbText
 73
2
  0
TEXT
  5
123
330
17
100
AcDbEntity
  8
TEXT_LABEL
100
AcDbText
 10
2025.0
 20
-70.0
 30
0.0
 40
5.0
  1
Sheet: 5/6
  7
LABEL
 72
1
 11
2025.0
 21
-70.0
 31
0.0
100
AcDbText
 73
2
  0
TEXT
  5
124
330
17
100
AcDbEntity
  8
TEXT_NOTE
100
AcDbText
 10
2025.0
 20
-85.0
 30
0.0
 40
4.0
  1
Dwg: TP-001
  7
NOTE
 72
1
 11
2025.0
 21
-85.0
 31
0.0
100
AcDbText
 73
2
  0
TEXT
  5
125
330
17
100
AcDbEntity
  8
TEXT_NOTE
100
AcDbText
 10
1900.0
 20
-97.0
 30
0.0
 40
4.0
  1
Syrian Arab Republic - Rif Dimashq - Al-Tal
  7
NOTE
 72
1
 11
1900.0
 21
-97.0
 31
0.0
100
AcDbText
 73
2
  0
LWPOLYLINE
  5
126
330
17
100
AcDbEntity
  8
SITE_BOUNDARY
100
AcDbPolyline
 90
18
 70
1
 10
200.0
 20
1900.0
 10
600.0
 20
2000.0
 10
1000.0
 20
2050.0
 10
1400.0
 20
2020.0
 10
1800.0
 20
2000.0
 10
2100.0
 20
1700.0
 10
2200.0
 20
1300.0
 10
2200.0
 20
900.0
 10
2100.0
 20
600.0
 10
1900.0
 20
350.0
 10
1600.0
 20
200.0
 10
1200.0
 20
100.0
 10
800.0
 20
150.0
 10
500.0
 20
300.0
 10
300.0
 20
550.0
 10
200.0
 20
850.0
 10
150.0
 20
1200.0
 10
150.0
 20
1600.0
  0
SPLINE
  5
127
330
17
100
AcDbEntity
  8
CONTOUR_MAJOR
100
AcDbSpline
 70
0
 71
3
 72
0
 73
0
 74
15
 11
150.0
 21
180.0
 31
0.0
 11
290.0
 21
199.9758657825643
 31
0.0
 11
430.0
 21
216.284891054348
 31
0.0
 11
570.0
 21
226.80546198293138
 31
0.0
 11
710.0
 21
230.02818507972256
 31
0.0
 11
850.0
 21
225.2482259884804
 31
0.0
 11
990.0
 21
212.66329463323262
 31
0.0
 11
1130.0
 21
193.36489641507745
 31
0.0
 11
1270.0
 21
169.22330334031565
 31
0.0
 11
1410.0
 21
142.67950231717847
 31
0.0
 11
1550.0
 21
116.46860124220854
 31
0.0
 11
1690.0
 21
93.3074582584296
 31
0.0
 11
1830.0
 21
75.58364218894735
 31
0.0
 11
1970.0
 21
65.0827058887374
 31
0.0
 11
2110.0
 21
62.7861730224803
 31
0.0
  0
TEXT
  5
128
330
17
100
AcDbEntity
  8
CONTOUR_MAJOR
100
AcDbText
 10
2130.0
 20
62.7861730224803
 30
0.0
 40
8.0
  1
800
  7
LABEL
 11
2130.0
 21
62.7861730224803
 31
0.0
100
AcDbText
  0
SPLINE
  5
129
330
17
100
AcDbEntity
  8
CONTOUR_MINOR
100
AcDbSpline
 70
0
 71
3
 72
0
 73
0
 74
15
 11
150.0
 21
277.48048400311365
 31
0.0
 11
290.0
 21
296.84230416597455
 31
0.0
 11
430.0
 21
311.7046967548813
 31
0.0
 11
570.0
 21
320.1214587675523
 31
0.0
 11
710.0
 21
320.8382931699145
 31
0.0
 11
850.0
 21
313.45421607262585
 31
0.0
 11
990.0
 21
298.4826986199779
 31
0.0
 11
1130.0
 21
277.30463069435194
 31
0.0
 11
1270.0
 21
252.01820285226256
 31
0.0
 11
1410.0
 21
225.20321845430323
 31
0.0
 11
1550.0
 21
199.6276676216892
 31
0.0
 11
1690.0
 21
177.93136937427266
 31
0.0
 11
1830.0
 21
162.32427341022841
 31
0.0
 11
1970.0
 21
154.3352705892238
 31
0.0
 11
2110.0
 21
154.6413011512353
 31
0.0
  0
SPLINE
  5
12A
330
17
100
AcDbEntity
  8
CONTOUR_MAJOR
100
AcDbSpline
 70
0
 71
3
 72
0
 73
0
 74
15
 11
150.0
 21
374.8442375552714
 31
0.0
 11
290.0
 21
393.2805457389394
 31
0.0
 11
430.0
 21
406.436760107449
 31
0.0
 11
570.0
 21
412.5735595723219
 31
0.0
 11
710.0
 21
410.71310298765013
 31
0.0
 11
850.0
 21
400.7669147855851
 31
0.0
 11
990.0
 21
383.5591338017509
 31
0.0
 11
1130.0
 21
360.741807101037
 31
0.0
 11
1270.0
 21
334.6118928649076
 31
0.0
 11
1410.0
 21
307.8514710375975
 31
0.0
 11
1550.0
 21
283.2219157790451
 31
0.0
 11
1690.0
 21
263.248339818475
 31
0.0
 11
1830.0
 21
249.9318048965243
 31
0.0
 11
1970.0
 21
244.52346086878114
 31
0.0
 11
2110.0
 21
247.38733129181796
 31
0.0
  0
TEXT
  5
12B
330
17
100
AcDbEntity
  8
CONTOUR_MAJOR
100
AcDbText
 10
2130.0
 20
247.38733129181796
 30
0.0
 40
8.0
  1
810
  7
LABEL
 11
2130.0
 21
247.38733129181796
 31
0.0
100
AcDbText
  0
SPLINE
  5
12C
330
17
100
AcDbEntity
  8
CONTOUR_MINOR
100
AcDbSpline
 70
0
 71
3
 72
0
 73
0
 74
15
 11
150.0
 21
471.97635174516284
 31
0.0
 11
290.0
 21
489.19012389503825
 31
0.0
 11
430.0
 21
500.4072388461139
 31
0.0
 11
570.0
 21
504.12350018430806
 31
0.0
 11
710.0
 21
499.65456808385267
 31
0.0
 11
850.0
 21
487.2282565651513
 31
0.0
 11
990.0
 21
467.9694307608112
 31
0.0
 11
1130.0
 21
443.77883630231327
 31
0.0
 11
1270.0
 21
417.11994636849886
 31
0.0
 11
1410.0
 21
390.7389816266435
 31
0.0
 11
1550.0
 21
367.3513053293216
 31
0.0
 11
1690.0
 21
349.3314467009751
 31
0.0
 11
1830.0
 21
338.44357031880963
 31
0.0
 11
1970.0
 21
335.64434008103876
 31
0.0
 11
2110.0
 21
340.98141256231804
 31
0.0
  0
SPLINE
  5
12D
330
17
100
AcDbEntity
  8
CONTOUR_MAJOR
100
AcDbSpline
 70
0
 71
3
 72
0
 73
0
 74
15
 11
150.0
 21
568.7655323162521
 31
0.0
 11
290.0
 21
584.4788216436548
 31
0.0
 11
430.0
 21
593.5541749781202
 31
0.0
 11
570.0
 21
594.7470942986517
 31
0.0
 11
710.0
 21
587.6792065416598
 31
0.0
 11
850.0
 21
572.8934609893195
 31
0.0
 11
990.0
 21
551.8008149435881
 31
0.0
 11
1130.0
 21
526.5243731286689
 31
0.0
 11
1270.0
 21
499.65927268236646
 31
0.0
 11
1410.0
 21
473.9767382398654
 31
0.0
 11
1550.0
 21
452.10744518511
 31
0.0
 11
1690.0
 21
436.2418118288327
 31
0.0
 11
1830.0
 21
427.8827930799166
 31
0.0
 11
1970.0
 21
427.6804172807772
 31
0.0
 11
2110.0
 21
435.367460526581
 31
0.0
  0
TEXT
  5
12E
330
17
100
AcDbEntity
  8
CONTOUR_MAJOR
100
AcDbText
 10
2130.0
 20
435.367460526581
 30
0.0
 40
8.0
  1
820
  7
LABEL
 11
2130.0
 21
435.367460526581
 31
0.0
100
AcDbText
  0
SPLINE
  5
12F
330
17
100
AcDbEntity
  8
CONTOUR_MINOR
100
AcDbSpline
 70
0
 71
3
 72
0
 73
0
 74
15
 11
150.0
 21
665.1058363764278
 31
0.0
 11
290.0
 21
679.0641106252727
 31
0.0
 11
430.0
 21
685.8284616176478
 31
0.0
 11
570.0
 21
684.4346109377651
 31
0.0
 11
710.0
 21
674.8178432172607
 31
0.0
 11
850.0
 21
657.8301710932406
 31
0.0
 11
990.0
 21
635.1495455367624
 31
0.0
 11
1130.0
 21
609.0916210516106
 31
0.0
 11
1270.0
 21
582.3462931240956
 31
0.0
 11
1410.0
 21
557.6702634236232
 31
0.0
 11
1550.0
 21
537.5721640301065
 31
0.0
 11
1690.0
 21
524.0276479208724
 31
0.0
 11
1830.0
 21
518.2582239211014
 31
0.0
 11
1970.0
 21
520.599920164278
 31
0.0
 11
2110.0
 21
530.4770323730762
 31
0.0
  0
SPLINE
  5
130
330
17
100
AcDbEntity
  8
CONTOUR_MAJOR
100
AcDbSpline
 70
0
 71
3
 72
0
 73
0
 74
15
 11
150.0
 21
760.8983256014001
 31
0.0
 11
290.0
 21
772.8744389389234
 31
0.0
 11
430.0
 21
777.1946092823418
 31
0.0
 11
570.0
 21
773.190926299982
 31
0.0
 11
710.0
 21
761.1151287283249
 31
0.0
 11
850.0
 21
742.1173978222815
 31
0.0
 11
990.0
 21
718.1194133748529
 31
0.0
 11
1130.0
 21
691.5965656813524
 31
0.0
 11
1270.0
 21
665.2951242938037
 31
0.0
 11
1410.0
 21
641.917967608169
 31
0.0
 11
1550.0
 21
623.8162334098707
 31
0.0
 11
1690.0
 21
612.7235062643317
 31
0.0
 11
1830.0
 21
609.5640043696534
 31
0.0
 11
1970.0
 21
614.3572908654975
 31
0.0
 11
2110.0
 21
626.2303949420797
 31
0.0
  0
TEXT
  5
131
330
17
100
AcDbEntity
  8
CONTOUR_MAJOR
100
AcDbText
 10
2130.0
 20
626.2303949420797
 30
0.0
 40
8.0
  1
830
  7
LABEL
 11
2130.0
 21
626.2303949420797
 31
0.0
100
AcDbText
  0
SPLINE
  5
132
330
17
100
AcDbEntity
  8
CONTOUR_MINOR
100
AcDbSpline
 70
0
 71
3
 72
0
 73
0
 74
15
 11
150.0
 21
856.0526101341616
 31
0.0
 11
290.0
 21
865.8503476856696
 31
0.0
 11
430.0
 21
867.6312996948147
 31
0.0
 11
570.0
 21
861.035447668114
 31
0.0
 11
710.0
 21
846.6288426960471
 31
0.0
 11
850.0
 21
825.8442870926496
 31
0.0
 11
990.0
 21
800.8201213189577
 31
0.0
 11
1130.0
 21
774.1561648501613
 31
0.0
 11
1270.0
 21
748.6157973227631
 31
0.0
 11
1410.0
 21
726.8096134457979
 31
0.0
 11
1550.0
 21
710.898263365528
 31
0.0
 11
1690.0
 21
702.3497375535795
 31
0.0
 11
1830.0
 21
701.7797581584025
 31
0.0
 11
1970.0
 21
708.893896871328
 31
0.0
 11
2110.0
 21
722.537768934964
 31
0.0
  0
SPLINE
  5
133
330
17
100
AcDbEntity
  8
CONTOUR_MAJOR
100
AcDbSpline
 70
0
 71
3
 72
0
 73
0
 74
15
 11
150.0
 21
950.4882590884738
 31
0.0
 11
290.0
 21
957.9453988048368
 31
0.0
 11
430.0
 21
957.1317184472347
 31
0.0
 11
570.0
 21
948.0018105652929
 31
0.0
 11
710.0
 21
931.428992113484
 31
0.0
 11
850.0
 21
909.1087286991841
 31
0.0
 11
990.0
 21
883.3655723802976
 31
0.0
 11
1130.0
 21
856.8865235245015
 31
0.0
 11
1270.0
 21
832.4125408743982
 31
0.0
 11
1410.0
 21
812.4249150946806
 31
0.0
 11
1550.0
 21
798.8637878436799
 31
0.0
 11
1690.0
 21
792.9121743243368
 31
0.0
 11
1830.0
 21
794.8709091905534
 31
0.0
 11
1970.0
 21
804.1389459623558
 31
0.0
 11
2110.0
 21
819.300729890126
 31
0.0
  0
TEXT
  5
134
330
17
100
AcDbEntity
  8
CONTOUR_MAJOR
100
AcDbText
 10
2130.0
 20
819.300729890126
 30
0.0
 40
8.0
  1
840
  7
LABEL
 11
2130.0
 21
819.300729890126
 31
0.0
100
AcDbText
  0
SPLINE
  5
135
330
17
100
AcDbEntity
  8
CONTOUR_MINOR
100
AcDbSpline
 70
0
 71
3
 72
0
 73
0
 74
15
 11
150.0
 21
1044.1360556459458
 31
0.0
 11
290.0
 21
1049.1268997244183
 31
0.0
 11
430.0
 21
1045.703661337881
 31
0.0
 11
570.0
 21
1034.1373538838818
 31
0.0
 11
710.0
 21
1015.5967189098415
 31
0.0
 11
850.0
 21
992.0158287778495
 31
0.0
 11
990.0
 21
965.872092301822
 31
0.0
 11
1130.0
 21
939.9010820258653
 31
0.0
 11
1270.0
 21
916.7821546908527
 31
0.0
 11
1410.0
 21
898.8322943060858
 31
0.0
 11
1550.0
 21
887.744554154397
 31
0.0
 11
1690.0
 21
884.4020399389078
 31
0.0
 11
1830.0
 21
888.7892210881116
 31
0.0
 11
1970.0
 21
900.0105909017676
 31
0.0
 11
2110.0
 21
916.4137440637915
 31
0.0
  0
SPLINE
  5
136
330
17
100
AcDbEntity
  8
CONTOUR_MAJOR
100
AcDbSpline
 70
0
 71
3
 72
0
 73
0
 74
15
 11
150.0
 21
1136.9390771613353
 31
0.0
 11
290.0
 21
1139.3764135177275
 31
0.0
 11
430.0
 21
1133.3694127203187
 31
0.0
 11
570.0
 21
1119.5023811778935
 31
0.0
 11
710.0
 21
1099.223033757808
 31
0.0
 11
850.0
 21
1074.6762696596363
 31
0.0
 11
990.0
 21
1048.4566143338961
 31
0.0
 11
1130.0
 21
1023.3088458324977
 31
0.0
 11
1270.0
 21
1001.8124990653896
 31
0.0
 11
1410.0
 21
986.0878127258364
 31
0.0
 11
1550.0
 21
977.5580275650631
 31
0.0
 11
1690.0
 21
976.7960855426757
 31
0.0
 11
1830.0
 21
983.4735499044289
 31
0.0
 11
1970.0
 21
996.4172066341062
 31
0.0
 11
2110.0
 21
1013.7658152487892
 31
0.0
  0
TEXT
  5
137
330
17
100
AcDbEntity
  8
CONTOUR_MAJOR
100
AcDbText
 10
2130.0
 20
1013.7658152487892
 30
0.0
 40
8.0
  1
850
  7
LABEL
 11
2130.0
 21
1013.7658152487892
 31
0.0
100
AcDbText
  0
SPLINE
  5
138
330
17
100
AcDbEntity
  8
CONTOUR_MINOR
100
AcDbSpline
 70
0
 71
3
 72
0
 73
0
 74
15
 11
150.0
 21
1228.8535834213894
 31
0.0
 11
290.0
 21
1228.6900466054717
 31
0.0
 11
430.0
 21
1220.1653977635156
 31
0.0
 11
570.0
 21
1204.1692196461981
 31
0.0
 11
710.0
 21
1182.4073958824467
 31
0.0
 11
850.0
 21
1157.204582709805
 31
0.0
 11
990.0
 21
1131.2348545300388
 31
0.0
 11
1130.0
 21
1107.2126845853654
 31
0.0
 11
1270.0
 21
1087.5811238119
 31
0.0
 11
1410.0
 21
1074.2342970710765
 31
0.0
 11
1550.0
 21
1068.3071187607193
 31
0.0
 11
1690.0
 21
1070.0569528547028
 31
0.0
 11
1830.0
 21
1078.8507982550411
 31
0.0
 11
1970.0
 21
1093.2588200636164
 31
0.0
 11
2110.0
 21
1111.2422168332414
 31
0.0
  0
SPLINE
  5
139
330
17
100
AcDbEntity
  8
CONTOUR_MAJOR
100
AcDbSpline
 70
0
 71
3
 72
0
 73
0
 74
15
 11
150.0
 21
1319.8496991962434
 31
0.0
 11
290.0
 21
1317.0785095137553
 31
0.0
 11
430.0
 21
1306.141614049262
 31
0.0
 11
570.0
 21
1288.2210914907753
 31
0.0
 11
710.0
 21
1265.2561610332539
 31
0.0
 11
850.0
 21
1239.7173611042376
 31
0.0
 11
990.0
 21
1214.319506036609
 31
0.0
 11
1130.0
 21
1191.7077268418166
 31
0.0
 11
1270.0
 21
1174.154058125994
 31
0.0
 11
1410.0
 21
1163.3006708336745
 31
0.0
 11
1550.0
 21
1159.9801384237974
 31
0.0
 11
1690.0
 21
1164.1337571312104
 31
0.0
 11
1830.0
 21
1174.8370559779044
 31
0.0
 11
1970.0
 21
1190.428670100968
 31
0.0
 11
2110.0
 21
1208.7262820709698
 31
0.0
  0
TEXT
  5
13A
330
17
100
AcDbEntity
  8
CONTOUR_MAJOR
100
AcDbText
 10
2130.0
 20
1208.7262820709698
 30
0.0
 40
8.0
  1
860
  7
LABEL
 11
2130.0
 21
1208.7262820709698
 31
0.0
100
AcDbText
  0
SPLINE
  5
13B
330
17
100
AcDbEntity
  8
CONTOUR_MINOR
100
AcDbSpline
 70
0
 71
3
 72
0
 73
0
 74
15
 11
150.0
 21
1409.9118804323898
 31
0.0
 11
290.0
 21
1404.566949739902
 31
0.0
 11
430.0
 21
1391.3608513766294
 31
0.0
 11
570.0
 21
1371.750815262088
 31
0.0
 11
710.0
 21
1347.8809218382585
 31
0.0
 11
850.0
 21
1322.3314404319228
 31
0.0
 11
990.0
 21
1297.8184805539486
 31
0.0
 11
1130.0
 21
1276.879875626258
 31
0.0
 11
1270.0
 21
1261.584780221489
 31
0.0
 11
1410.0
 21
1253.3015029388057
 31
0.0
 11
1550.0
 21
1252.550979642011
 31
0.0
 11
1690.0
 21
1258.9628812049857
 31
0.0
 11
1830.0
 21
1271.3389095234088
 31
0.0
 11
1970.0
 21
1287.8148736343462
 31
0.0
 11
2110.0
 21
1306.1012246270502
 31
0.0
  0
SPLINE
  5
13C
330
17
100
AcDbEntity
  8
CONTOUR_MAJOR
100
AcDbSpline
 70
0
 71
3
 72
0
 73
0
 74
15
 11
150.0
 21
1499.0391568124362
 31
0.0
 11
290.0
 21
1491.1945593341698
 31
0.0
 11
430.0
 21
1475.8977119481567
 31
0.0
 11
570.0
 21
1454.8593574566446
 31
0.0
 11
710.0
 21
1430.396766438386
 31
0.0
 11
850.0
 21
1405.162075514667
 31
0.0
 11
990.0
 21
1381.8332244103901
 31
0.0
 11
1130.0
 21
1362.8044679421919
 31
0.0
 11
1270.0
 21
1349.913382820767
 31
0.0
 11
1410.0
 21
1344.2367804017474
 31
0.0
 11
1550.0
 21
1345.9795252979902
 31
0.0
 11
1690.0
 21
1354.4689682100004
 31
0.0
 11
1830.0
 21
1368.254899641578
 31
0.0
 11
1970.0
 21
1385.3021714279926
 31
0.0
 11
2110.0
 21
1403.2519609895082
 31
0.0
  0
TEXT
  5
13D
330
17
100
AcDbEntity
  8
CONTOUR_MAJOR
100
AcDbText
 10
2130.0
 20
1403.2519609895082
 30
0.0
 40
8.0
  1
870
  7
LABEL
 11
2130.0
 21
1403.2519609895082
 31
0.0
100
AcDbText
  0
SPLINE
  5
13E
330
17
100
AcDbEntity
  8
CONTOUR_MINOR
100
AcDbSpline
 70
0
 71
3
 72
0
 73
0
 74
15
 11
150.0
 21
1587.2451468965817
 31
0.0
 11
290.0
 21
1577.0139633209149
 31
0.0
 11
430.0
 21
1559.8374462274312
 31
0.0
 11
570.0
 21
1537.6542569685917
 31
0.0
 11
710.0
 21
1512.9204825755107
 31
0.0
 11
850.0
 21
1488.3211418941476
 31
0.0
 11
990.0
 21
1466.4571355262333
 31
0.0
 11
1130.0
 21
1449.545099163473
 31
0.0
 11
1270.0
 21
1439.1659475212537
 31
0.0
 11
1410.0
 21
1436.0919085305025
 31
0.0
 11
1550.0
 21
1440.21227408348
 31
0.0
 11
1690.0
 21
1450.5660975000992
 31
0.0
 11
1830.0
 21
1465.477104619731
 31
0.0
 11
1970.0
 21
1482.7737267040286
 31
0.0
 11
2110.0
 21
1500.0669063090336
 31
0.0
  0
SPLINE
  5
13F
330
17
100
AcDbEntity
  8
CONTOUR_MAJOR
100
AcDbSpline
 70
0
 71
3
 72
0
 73
0
 74
15
 11
150.0
 21
1674.557845609541
 31
0.0
 11
290.0
 21
1662.090398502688
 31
0.0
 11
430.0
 21
1643.2746226341164
 31
0.0
 11
570.0
 21
1620.2479469812365
 31
0.0
 11
710.0
 21
1595.568735158805
 31
0.0
 11
850.0
 21
1571.9153900515037
 31
0.0
 11
990.0
 21
1551.7741059704356
 31
0.0
 11
1130.0
 21
1537.152630649769
 31
0.0
 11
1270.0
 21
1529.3541378008108
 31
0.0
 11
1410.0
 21
1528.837938671085
 31
0.0
 11
1550.0
 21
1535.1831753693623
 31
0.0
 11
1690.0
 21
1547.159125411948
 31
0.0
 11
1830.0
 21
1562.8928243647129
 31
0.0
 11
1970.0
 21
1580.1129483412983
 31
0.0
 11
2110.0
 21
1596.4397156432321
 31
0.0
  0
TEXT
  5
140
330
17
100
AcDbEntity
  8
CONTOUR_MAJOR
100
AcDbText
 10
2130.0
 20
1596.4397156432321
 30
0.0
 40
8.0
  1
880
  7
LABEL
 11
2130.0
 21
1596.4397156432321
 31
0.0
100
AcDbText
  0
SPLINE
  5
141
330
17
100
AcDbEntity
  8
CONTOUR_MINOR
100
AcDbSpline
 70
0
 71
3
 72
0
 73
0
 74
15
 11
150.0
 21
1761.0191873891072
 31
0.0
 11
290.0
 21
1746.5006954617481
 31
0.0
 11
430.0
 21
1726.3116518353927
 31
0.0
 11
570.0
 21
1702.7560004848278
 31
0.0
 11
710.0
 21
1678.456245747851
 31
0.0
 11
850.0
 21
1656.04477960178
 31
0.0
 11
990.0
 21
1637.8572128529356
 31
0.0
 11
1130.0
 21
1625.6643960720542
 31
0.0
 11
1270.0
 21
1620.4750170130685
 31
0.0
 11
1410.0
 21
1622.4320199415852
 31
0.0
 11
1550.0
 21
1630.8146599036318
 31
0.0
 11
1690.0
 21
1644.1451699500778
 31
0.0
 11
1830.0
 21
1660.3863390501542
 31
0.0
 11
1970.0
 21
1677.205310240818
 31
0.0
 11
2110.0
 21
1692.2709434338856
 31
0.0
  0
SPLINE
  5
142
330
17
100
AcDbEntity
  8
CONTOUR_MAJOR
100
AcDbSpline
 70
0
 71
3
 72
0
 73
0
 74
15
 11
150.0
 21
1846.6843918132752
 31
0.0
 11
290.0
 21
1830.332079644525
 31
0.0
 11
430.0
 21
1809.0571886617481
 31
0.0
 11
570.0
 21
1785.2953267986954
 31
0.0
 11
710.0
 21
1761.694002361073
 31
0.0
 11
850.0
 21
1740.8009194575684
 31
0.0
 11
990.0
 21
1724.7675779807932
 31
0.0
 11
1130.0
 21
1715.1036188331611
 31
0.0
 11
1270.0
 21
1712.511094212807
 31
0.0
 11
1410.0
 21
1716.8180679058482
 31
0.0
 11
1550.0
 21
1727.0188502536303
 31
0.0
 11
1690.0
 21
1741.4152162260139
 31
0.0
 11
1830.0
 21
1757.84071488566
 31
0.0
 11
1970.0
 21
1773.940138467248
 31
0.0
 11
2110.0
 21
1787.4695953216249
 31
0.0
  0
TEXT
  5
143
330
17
100
AcDbEntity
  8
CONTOUR_MAJOR
100
AcDbText
 10
2130.0
 20
1787.4695953216249
 30
0.0
 40
8.0
  1
890
  7
LABEL
 11
2130.0
 21
1787.4695953216249
 31
0.0
100
AcDbText
  0
SPLINE
  5
144
330
17
100
AcDbEntity
  8
CONTOUR_MINOR
100
AcDbSpline
 70
0
 71
3
 72
0
 73
0
 74
15
 11
150.0
 21
1931.6211019171963
 31
0.0
 11
290.0
 21
1913.6808102376995
 31
0.0
 11
430.0
 21
1891.6244365846899
 31
0.0
 11
570.0
 21
1867.9823472404246
 31
0.0
 11
710.0
 21
1845.3875275448306
 31
0.0
 11
850.0
 21
1826.2656383025649
 31
0.0
 11
990.0
 21
1812.553414072833
 31
0.0
 11
1130.0
 21
1805.479049674346
 31
0.0
 11
1270.0
 21
1805.4305970963078
 31
0.0
 11
1410.0
 21
1811.9276397523433
 31
0.0
 11
1550.0
 21
1823.698932103991
 31
0.0
 11
1690.0
 21
1838.8558175991504
 31
0.0
 11
1830.0
 21
1855.1396288294977
 31
0.0
 11
1970.0
 21
1870.2123382786363
 31
0.0
 11
2110.0
 21
1881.9545480824763
 31
0.0
  0
SPLINE
  5
145
330
17
100
AcDbEntity
  8
CONTOUR_MAJOR
100
AcDbSpline
 70
0
 71
3
 72
0
 73
0
 74
15
 11
150.0
 21
2015.9083286462374
 31
0.0
 11
290.0
 21
1996.65067807579
 31
0.0
 11
430.0
 21
1974.1293812144318
 31
0.0
 11
570.0
 21
1950.9311784101328
 31
0.0
 11
710.0
 21
1929.6352317293765
 31
0.0
 11
850.0
 21
1912.5097076823292
 31
0.0
 11
990.0
 21
1901.2492724162923
 31
0.0
 11
1130.0
 21
1896.784830122898
 31
0.0
 11
1270.0
 21
1899.1879677975273
 31
0.0
 11
1410.0
 21
1907.6810023213468
 31
0.0
 11
1550.0
 21
1920.7506650116502
 31
0.0
 11
1690.0
 21
1936.350865973633
 31
0.0
 11
1830.0
 21
1952.1691837707585
 31
0.0
 11
1970.0
 21
1965.9240340947174
 31
0.0
 11
2110.0
 21
1975.655815528638
 31
0.0
  0
TEXT
  5
146
330
17
100
AcDbEntity
  8
CONTOUR_MAJOR
100
AcDbText
 10
2130.0
 20
1975.655815528638
 30
0.0
 40
8.0
  1
900
  7
LABEL
 11
2130.0
 21
1975.655815528638
 31
0.0
100
AcDbText
  0
SPLINE
  5
147
330
17
100
AcDbEntity
  8
WATER_CHANNEL
100
AcDbSpline
 70
0
 71
3
 72
0
 73
0
 74
6
 11
900.0
 21
2000.0
 31
0.0
 11
870.0
 21
1700.0
 31
0.0
 11
840.0
 21
1300.0
 31
0.0
 11
860.0
 21
900.0
 31
0.0
 11
880.0
 21
500.0
 31
0.0
 11
900.0
 21
100.0
 31
0.0
  0
SPLINE
  5
148
330
17
100
AcDbEntity
  8
WATER_CHANNEL
100
AcDbSpline
 70
0
 71
3
 72
0
 73
0
 74
6
 11
1650.0
 21
1950.0
 31
0.0
 11
1620.0
 21
1600.0
 31
0.0
 11
1640.0
 21
1200.0
 31
0.0
 11
1660.0
 21
800.0
 31
0.0
 11
1640.0
 21
400.0
 31
0.0
 11
1620.0
 21
100.0
 31
0.0
  0
SPLINE
  5
149
330
17
100
AcDbEntity
  8
WATER_CHANNEL
100
AcDbSpline
 70
0
 71
3
 72
0
 73
0
 74
5
 11
450.0
 21
1800.0
 31
0.0
 11
500.0
 21
1400.0
 31
0.0
 11
540.0
 21
1000.0
 31
0.0
 11
520.0
 21
600.0
 31
0.0
 11
530.0
 21
300.0
 31
0.0
  0
TEXT
  5
14A
330
17
100
AcDbEntity
  8
WATER_CHANNEL
100
AcDbText
 10
910.0
 20
1100.0
 30
0.0
 40
10.0
  1
MAIN WADI
  7
LABEL
 11
910.0
 21
1100.0
 31
0.0
100
AcDbText
  0
TEXT
  5
14B
330
17
100
AcDbEntity
  8
WATER_CHANNEL
100
AcDbText
 10
1660.0
 20
1000.0
 30
0.0
 40
8.0
  1
SECONDARY WADI
  7
NOTE
 11
1660.0
 21
1000.0
 31
0.0
100
AcDbText
  0
LINE
  5
14C
330
17
100
AcDbEntity
  8
ANNOTATION
100
AcDbLine
 10
700.0
 20
1600.0
 30
0.0
 11
400.0
 21
1150.0
 31
0.0
  0
LINE
  5
14D
330
17
100
AcDbEntity
  8
ANNOTATION
100
AcDbLine
 10
400.0
 20
1150.0
 30
0.0
 11
403.73794135540675
 21
1169.6475900411103
 31
0.0
  0
LINE
  5
14E
330
17
100
AcDbEntity
  8
ANNOTATION
100
AcDbLine
 10
400.0
 20
1150.0
 30
0.0
 11
416.69856720894546
 21
1161.007172805418
 31
0.0
  0
LINE
  5
14F
330
17
100
AcDbEntity
  8
ANNOTATION
100
AcDbLine
 10
1200.0
 20
1400.0
 30
0.0
 11
900.0
 21
950.0
 31
0.0
  0
LINE
  5
150
330
17
100
AcDbEntity
  8
ANNOTATION
100
AcDbLine
 10
900.0
 20
950.0
 30
0.0
 11
903.7379413554067
 21
969.6475900411103
 31
0.0
  0
LINE
  5
151
330
17
100
AcDbEntity
  8
ANNOTATION
100
AcDbLine
 10
900.0
 20
950.0
 30
0.0
 11
916.6985672089454
 21
961.0071728054179
 31
0.0
  0
LINE
  5
152
330
17
100
AcDbEntity
  8
ANNOTATION
100
AcDbLine
 10
1600.0
 20
1200.0
 30
0.0
 11
1300.0
 21
750.0
 31
0.0
  0
LINE
  5
153
330
17
100
AcDbEntity
  8
ANNOTATION
100
AcDbLine
 10
1300.0
 20
750.0
 30
0.0
 11
1303.7379413554067
 21
769.6475900411103
 31
0.0
  0
LINE
  5
154
330
17
100
AcDbEntity
  8
ANNOTATION
100
AcDbLine
 10
1300.0
 20
750.0
 30
0.0
 11
1316.6985672089454
 21
761.0071728054179
 31
0.0
  0
TEXT
  5
155
330
17
100
AcDbEntity
  8
ANNOTATION
100
AcDbText
 10
600.0
 20
1700.0
 30
0.0
 40
12.0
  1
SLOPE DIRECTION: NE → SW
  7
LABEL
 11
600.0
 21
1700.0
 31
0.0
100
AcDbText
  0
LWPOLYLINE
  5
156
330
17
100
AcDbEntity
  8
ANNOTATION
100
AcDbPolyline
 90
4
 70
1
 10
50.0
 20
1950.0
 10
400.0
 20
1950.0
 10
400.0
 20
2050.0
 10
50.0
 20
2050.0
  0
TEXT
  5
157
330
17
100
AcDbEntity
  8
TEXT_LABEL
100
AcDbText
 10
60.0
 20
2030.0
 30
0.0
 40
8.0
  1
ELEVATION DATA
  7
LABEL
 11
60.0
 21
2030.0
 31
0.0
100
AcDbText
  0
TEXT
  5
158
330
17
100
AcDbEntity
  8
TEXT_NOTE
100
AcDbText
 10
60.0
 20
2010.0
 30
0.0
 40
6.0
  1
Highest: 900m (NE corner)
  7
NOTE
 11
60.0
 21
2010.0
 31
0.0
100
AcDbText
  0
TEXT
  5
159
330
17
100
AcDbEntity
  8
TEXT_NOTE
100
AcDbText
 10
60.0
 20
1990.0
 30
0.0
 40
6.0
  1
Lowest: 800m (SW corner)
  7
NOTE
 11
60.0
 21
1990.0
 31
0.0
100
AcDbText
  0
TEXT
  5
15A
330
17
100
AcDbEntity
  8
TEXT_NOTE
100
AcDbText
 10
60.0
 20
1970.0
 30
0.0
 40
6.0
  1
Contour interval: 5m
  7
NOTE
 11
60.0
 21
1970.0
 31
0.0
100
AcDbText
  0
INSERT
  5
15B
330
17
100
AcDbEntity
  8
NORTH_ARROW
100
AcDbBlockReference
  2
NORTH_ARROW
 10
2350.0
 20
1900.0
 30
0.0
 41
4.0
 42
4.0
  0
INSERT
  5
15D
330
17
100
AcDbEntity
  8
SCALE_BAR
100
AcDbBlockReference
  2
SCALE_BAR_1000
 10
100.0
 20
-60.0
 30
0.0
 41
2.0
 42
2.0
  0
CIRCLE
  5
164
330
17
100
AcDbEntity
  8
CONTOUR_MAJOR
370
18
100
AcDbCircle
 10
400.0
 20
1800.0
 30
0.0
 40
5.0
  0
TEXT
  5
165
330
17
100
AcDbEntity
  8
CONTOUR_MAJOR
100
AcDbText
 10
408.0
 20
1802.0
 30
0.0
 40
7.0
  1
892
  7
LABEL
 11
408.0
 21
1802.0
 31
0.0
100
AcDbText
 73
1
  0
LINE
  5
166
330
17
100
AcDbEntity
  8
CONTOUR_MAJOR
370
9
100
AcDbLine
 10
400.0
 20
1797.0
 30
0.0
 11
400.0
 21
1803.0
 31
0.0
  0
LINE
  5
167
330
17
100
AcDbEntity
  8
CONTOUR_MAJOR
370
9
100
AcDbLine
 10
397.0
 20
1800.0
 30
0.0
 11
403.0
 21
1800.0
 31
0.0
  0
CIRCLE
  5
168
330
17
100
AcDbEntity
  8
CONTOUR_MAJOR
370
18
100
AcDbCircle
 10
800.0
 20
1600.0
 30
0.0
 40
5.0
  0
TEXT
  5
169
330
17
100
AcDbEntity
  8
CONTOUR_MAJOR
100
AcDbText
 10
808.0
 20
1602.0
 30
0.0
 40
7.0
  1
885
  7
LABEL
 11
808.0
 21
1602.0
 31
0.0
100
AcDbText
 73
1
  0
LINE
  5
16A
330
17
100
AcDbEntity
  8
CONTOUR_MAJOR
370
9
100
AcDbLine
 10
800.0
 20
1597.0
 30
0.0
 11
800.0
 21
1603.0
 31
0.0
  0
LINE
  5
16B
330
17
100
AcDbEntity
  8
CONTOUR_MAJOR
370
9
100
AcDbLine
 10
797.0
 20
1600.0
 30
0.0
 11
803.0
 21
1600.0
 31
0.0
  0
CIRCLE
  5
16C
330
17
100
AcDbEntity
  8
CONTOUR_MAJOR
370
18
100
AcDbCircle
 10
1200.0
 20
1400.0
 30
0.0
 40
5.0
  0
TEXT
  5
16D
330
17
100
AcDbEntity
  8
CONTOUR_MAJOR
100
AcDbText
 10
1208.0
 20
1402.0
 30
0.0
 40
7.0
  1
878
  7
LABEL
 11
1208.0
 21
1402.0
 31
0.0
100
AcDbText
 73
1
  0
LINE
  5
16E
330
17
100
AcDbEntity
  8
CONTOUR_MAJOR
370
9
100
AcDbLine
 10
1200.0
 20
1397.0
 30
0.0
 11
1200.0
 21
1403.0
 31
0.0
  0
LINE
  5
16F
330
17
100
AcDbEntity
  8
CONTOUR_MAJOR
370
9
100
AcDbLine
 10
1197.0
 20
1400.0
 30
0.0
 11
1203.0
 21
1400.0
 31
0.0
  0
CIRCLE
  5
170
330
17
100
AcDbEntity
  8
CONTOUR_MAJOR
370
18
100
AcDbCircle
 10
1600.0
 20
1200.0
 30
0.0
 40
5.0
  0
TEXT
  5
171
330
17
100
AcDbEntity
  8
CONTOUR_MAJOR
100
AcDbText
 10
1608.0
 20
1202.0
 30
0.0
 40
7.0
  1
870
  7
LABEL
 11
1608.0
 21
1202.0
 31
0.0
100
AcDbText
 73
1
  0
LINE
  5
172
330
17
100
AcDbEntity
  8
CONTOUR_MAJOR
370
9
100
AcDbLine
 10
1600.0
 20
1197.0
 30
0.0
 11
1600.0
 21
1203.0
 31
0.0
  0
LINE
  5
173
330
17
100
AcDbEntity
  8
CONTOUR_MAJOR
370
9
100
AcDbLine
 10
1597.0
 20
1200.0
 30
0.0
 11
1603.0
 21
1200.0
 31
0.0
  0
CIRCLE
  5
174
330
17
100
AcDbEntity
  8
CONTOUR_MAJOR
370
18
100
AcDbCircle
 10
2000.0
 20
1000.0
 30
0.0
 40
5.0
  0
TEXT
  5
175
330
17
100
AcDbEntity
  8
CONTOUR_MAJOR
100
AcDbText
 10
2008.0
 20
1002.0
 30
0.0
 40
7.0
  1
862
  7
LABEL
 11
2008.0
 21
1002.0
 31
0.0
100
AcDbText
 73
1
  0
LINE
  5
176
330
17
100
AcDbEntity
  8
CONTOUR_MAJOR
370
9
100
AcDbLine
 10
2000.0
 20
997.0
 30
0.0
 11
2000.0
 21
1003.0
 31
0.0
  0
LINE
  5
177
330
17
100
AcDbEntity
  8
CONTOUR_MAJOR
370
9
100
AcDbLine
 10
1997.0
 20
1000.0
 30
0.0
 11
2003.0
 21
1000.0
 31
0.0
  0
CIRCLE
  5
178
330
17
100
AcDbEntity
  8
CONTOUR_MAJOR
370
18
100
AcDbCircle
 10
600.0
 20
1000.0
 30
0.0
 40
5.0
  0
TEXT
  5
179
330
17
100
AcDbEntity
  8
CONTOUR_MAJOR
100
AcDbText
 10
608.0
 20
1002.0
 30
0.0
 40
7.0
  1
872
  7
LABEL
 11
608.0
 21
1002.0
 31
0.0
100
AcDbText
 73
1
  0
LINE
  5
17A
330
17
100
AcDbEntity
  8
CONTOUR_MAJOR
370
9
100
AcDbLine
 10
600.0
 20
997.0
 30
0.0
 11
600.0
 21
1003.0
 31
0.0
  0
LINE
  5
17B
330
17
100
AcDbEntity
  8
CONTOUR_MAJOR
370
9
100
AcDbLine
 10
597.0
 20
1000.0
 30
0.0
 11
603.0
 21
1000.0
 31
0.0
  0
CIRCLE
  5
17C
330
17
100
AcDbEntity
  8
CONTOUR_MAJOR
370
18
100
AcDbCircle
 10
1000.0
 20
800.0
 30
0.0
 40
5.0
  0
TEXT
  5
17D
330
17
100
AcDbEntity
  8
CONTOUR_MAJOR
100
AcDbText
 10
1008.0
 20
802.0
 30
0.0
 40
7.0
  1
865
  7
LABEL
 11
1008.0
 21
802.0
 31
0.0
100
AcDbText
 73
1
  0
LINE
  5
17E
330
17
100
AcDbEntity
  8
CONTOUR_MAJOR
370
9
100
AcDbLine
 10
1000.0
 20
797.0
 30
0.0
 11
1000.0
 21
803.0
 31
0.0
  0
LINE
  5
17F
330
17
100
AcDbEntity
  8
CONTOUR_MAJOR
370
9
100
AcDbLine
 10
997.0
 20
800.0
 30
0.0
 11
1003.0
 21
800.0
 31
0.0
  0
CIRCLE
  5
180
330
17
100
AcDbEntity
  8
CONTOUR_MAJOR
370
18
100
AcDbCircle
 10
1400.0
 20
600.0
 30
0.0
 40
5.0
  0
TEXT
  5
181
330
17
100
AcDbEntity
  8
CONTOUR_MAJOR
100
AcDbText
 10
1408.0
 20
602.0
 30
0.0
 40
7.0
  1
858
  7
LABEL
 11
1408.0
 21
602.0
 31
0.0
100
AcDbText
 73
1
  0
LINE
  5
182
330
17
100
AcDbEntity
  8
CONTOUR_MAJOR
370
9
100
AcDbLine
 10
1400.0
 20
597.0
 30
0.0
 11
1400.0
 21
603.0
 31
0.0
  0
LINE
  5
183
330
17
100
AcDbEntity
  8
CONTOUR_MAJOR
370
9
100
AcDbLine
 10
1397.0
 20
600.0
 30
0.0
 11
1403.0
 21
600.0
 31
0.0
  0
CIRCLE
  5
184
330
17
100
AcDbEntity
  8
CONTOUR_MAJOR
370
18
100
AcDbCircle
 10
1800.0
 20
400.0
 30
0.0
 40
5.0
  0
TEXT
  5
185
330
17
100
AcDbEntity
  8
CONTOUR_MAJOR
100
AcDbText
 10
1808.0
 20
402.0
 30
0.0
 40
7.0
  1
850
  7
LABEL
 11
1808.0
 21
402.0
 31
0.0
100
AcDbText
 73
1
  0
LINE
  5
186
330
17
100
AcDbEntity
  8
CONTOUR_MAJOR
370
9
100
AcDbLine
 10
1800.0
 20
397.0
 30
0.0
 11
1800.0
 21
403.0
 31
0.0
  0
LINE
  5
187
330
17
100
AcDbEntity
  8
CONTOUR_MAJOR
370
9
100
AcDbLine
 10
1797.0
 20
400.0
 30
0.0
 11
1803.0
 21
400.0
 31
0.0
  0
CIRCLE
  5
188
330
17
100
AcDbEntity
  8
CONTOUR_MAJOR
370
18
100
AcDbCircle
 10
500.0
 20
500.0
 30
0.0
 40
5.0
  0
TEXT
  5
189
330
17
100
AcDbEntity
  8
CONTOUR_MAJOR
100
AcDbText
 10
508.0
 20
502.0
 30
0.0
 40
7.0
  1
845
  7
LABEL
 11
508.0
 21
502.0
 31
0.0
100
AcDbText
 73
1
  0
LINE
  5
18A
330
17
100
AcDbEntity
  8
CONTOUR_MAJOR
370
9
100
AcDbLine
 10
500.0
 20
497.0
 30
0.0
 11
500.0
 21
503.0
 31
0.0
  0
LINE
  5
18B
330
17
100
AcDbEntity
  8
CONTOUR_MAJOR
370
9
100
AcDbLine
 10
497.0
 20
500.0
 30
0.0
 11
503.0
 21
500.0
 31
0.0
  0
CIRCLE
  5
18C
330
17
100
AcDbEntity
  8
CONTOUR_MAJOR
370
18
100
AcDbCircle
 10
900.0
 20
300.0
 30
0.0
 40
5.0
  0
TEXT
  5
18D
330
17
100
AcDbEntity
  8
CONTOUR_MAJOR
100
AcDbText
 10
908.0
 20
302.0
 30
0.0
 40
7.0
  1
838
  7
LABEL
 11
908.0
 21
302.0
 31
0.0
100
AcDbText
 73
1
  0
LINE
  5
18E
330
17
100
AcDbEntity
  8
CONTOUR_MAJOR
370
9
100
AcDbLine
 10
900.0
 20
297.0
 30
0.0
 11
900.0
 21
303.0
 31
0.0
  0
LINE
  5
18F
330
17
100
AcDbEntity
  8
CONTOUR_MAJOR
370
9
100
AcDbLine
 10
897.0
 20
300.0
 30
0.0
 11
903.0
 21
300.0
 31
0.0
  0
CIRCLE
  5
190
330
17
100
AcDbEntity
  8
CONTOUR_MAJOR
370
18
100
AcDbCircle
 10
1300.0
 20
200.0
 30
0.0
 40
5.0
  0
TEXT
  5
191
330
17
100
AcDbEntity
  8
CONTOUR_MAJOR
100
AcDbText
 10
1308.0
 20
202.0
 30
0.0
 40
7.0
  1
830
  7
LABEL
 11
1308.0
 21
202.0
 31
0.0
100
AcDbText
 73
1
  0
LINE
  5
192
330
17
100
AcDbEntity
  8
CONTOUR_MAJOR
370
9
100
AcDbLine
 10
1300.0
 20
197.0
 30
0.0
 11
1300.0
 21
203.0
 31
0.0
  0
LINE
  5
193
330
17
100
AcDbEntity
  8
CONTOUR_MAJOR
370
9
100
AcDbLine
 10
1297.0
 20
200.0
 30
0.0
 11
1303.0
 21
200.0
 31
0.0
  0
SPLINE
  5
194
330
17
100
AcDbEntity
  8
WATER_CHANNEL
370
18
100
AcDbSpline
 70
0
 71
3
 72
0
 73
0
 74
4
 11
350.0
 21
1800.0
 31
0.0
 11
380.0
 21
1500.0
 31
0.0
 11
430.0
 21
1200.0
 31
0.0
 11
460.0
 21
1000.0
 31
0.0
  0
SPLINE
  5
195
330
17
100
AcDbEntity
  8
WATER_CHANNEL
370
18
100
AcDbSpline
 70
0
 71
3
 72
0
 73
0
 74
4
 11
1200.0
 21
1700.0
 31
0.0
 11
1250.0
 21
1400.0
 31
0.0
 11
1300.0
 21
1100.0
 31
0.0
 11
1350.0
 21
800.0
 31
0.0
  0
SPLINE
  5
196
330
17
100
AcDbEntity
  8
WATER_CHANNEL
370
18
100
AcDbSpline
 70
0
 71
3
 72
0
 73
0
 74
4
 11
1900.0
 21
1500.0
 31
0.0
 11
1850.0
 21
1200.0
 31
0.0
 11
1800.0
 21
900.0
 31
0.0
 11
1750.0
 21
600.0
 31
0.0
  0
ENDSEC
  0
SECTION
  2
OBJECTS
  0
DICTIONARY
  5
A
330
0
100
AcDbDictionary
281
1
  3
ACAD_COLOR
350
B
  3
ACAD_GROUP
350
C
  3
ACAD_LAYOUT
350
D
  3
ACAD_MATERIAL
350
E
  3
ACAD_MLEADERSTYLE
350
F
  3
ACAD_MLINESTYLE
350
10
  3
ACAD_PLOTSETTINGS
350
11
  3
ACAD_PLOTSTYLENAME
350
12
  3
ACAD_SCALELIST
350
14
  3
ACAD_TABLESTYLE
350
15
  3
ACAD_VISUALSTYLE
350
16
  3
EZDXF_META
350
2D
  0
DICTIONARY
  5
B
330
A
100
AcDbDictionary
281
1
  0
DICTIONARY
  5
C
330
A
100
AcDbDictionary
281
1
  0
DICTIONARY
  5
D
330
A
100
AcDbDictionary
281
1
  3
Model
350
1A
  3
Layout1
350
1E
  0
DICTIONARY
  5
E
330
A
100
AcDbDictionary
281
1
  3
ByBlock
350
1F
  3
ByLayer
350
20
  3
Global
350
21
  0
DICTIONARY
  5
F
330
A
100
AcDbDictionary
281
1
  3
Standard
350
2C
  0
DICTIONARY
  5
10
330
A
100
AcDbDictionary
281
1
  3
Standard
350
22
  0
DICTIONARY
  5
11
330
A
100
AcDbDictionary
281
1
  0
ACDBDICTIONARYWDFLT
  5
12
330
A
100
AcDbDictionary
281
1
  3
Normal
350
13
100
AcDbDictionaryWithDefault
340
13
  0
ACDBPLACEHOLDER
  5
13
330
12
  0
DICTIONARY
  5
14
330
A
100
AcDbDictionary
281
1
  0
DICTIONARY
  5
15
330
A
100
AcDbDictionary
281
1
  0
DICTIONARY
  5
16
330
A
100
AcDbDictionary
281
1
  3
2dWireframe
350
5A
  3
Basic
350
5B
  3
Brighten
350
5C
  3
ColorChange
350
5D
  3
Conceptual
350
5E
  3
Dim
350
5F
  3
EdgeColorOff
350
60
  3
Facepattern
350
61
  3
Flat
350
62
  3
FlatWithEdges
350
63
  3
Gouraud
350
64
  3
GouraudWithEdges
350
65
  3
Hidden
350
66
  3
JitterOff
350
67
  3
Linepattern
350
68
  3
Modeling
350
69
  3
OverhangOff
350
6A
  3
Realistic
350
6B
  3
Shaded
350
6C
  3
Shaded with edges
350
6D
  3
Shades of Gray
350
6E
  3
Sketchy
350
6F
  3
Thicken
350
70
  3
Wireframe
350
71
  3
X-Ray
350
72
  0
LAYOUT
  5
1A
330
D
100
AcDbPlotSettings
  1

  4
A3
  6

 40
7.5
 41
20.0
 42
7.5
 43
20.0
 44
420.0
 45
297.0
 46
0.0
 47
0.0
 48
0.0
 49
0.0
140
0.0
141
0.0
142
1.0
143
1.0
 70
1024
 72
1
 73
0
 74
5
  7

 75
16
 76
0
 77
2
 78
300
147
1.0
148
0.0
149
0.0
100
AcDbLayout
  1
Model
 70
1
 71
0
 10
0.0
 20
0.0
 11
420.0
 21
297.0
 12
0.0
 22
0.0
 32
0.0
 14
1e+20
 24
1e+20
 34
1e+20
 15
-1e+20
 25
-1e+20
 35
-1e+20
146
0.0
 13
0.0
 23
0.0
 33
0.0
 16
1.0
 26
0.0
 36
0.0
 17
0.0
 27
1.0
 37
0.0
 76
1
330
17
  0
LAYOUT
  5
1E
330
D
100
AcDbPlotSettings
  1

  4
A3
  6

 40
7.5
 41
20.0
 42
7.5
 43
20.0
 44
420.0
 45
297.0
 46
0.0
 47
0.0
 48
0.0
 49
0.0
140
0.0
141
0.0
142
1.0
143
1.0
 70
0
 72
1
 73
0
 74
5
  7

 75
16
 76
0
 77
2
 78
300
147
1.0
148
0.0
149
0.0
100
AcDbLayout
  1
Layout1
 70
1
 71
1
 10
0.0
 20
0.0
 11
420.0
 21
297.0
 12
0.0
 22
0.0
 32
0.0
 14
1e+20
 24
1e+20
 34
1e+20
 15
-1e+20
 25
-1e+20
 35
-1e+20
146
0.0
 13
0.0
 23
0.0
 33
0.0
 16
1.0
 26
0.0
 36
0.0
 17
0.0
 27
1.0
 37
0.0
 76
1
330
1B
  0
MATERIAL
  5
1F
102
{ACAD_REACTORS
330
E
102
}
330
E
100
AcDbMaterial
  1
ByBlock
  2

 70
0
 40
1.0
 71
1
 41
1.0
 91
-1023410177
 42
1.0
 72
1
  3

 73
1
 74
1
 75
1
 44
0.5
 73
0
 45
1.0
 46
1.0
 77
1
  4

 78
1
 79
1
170
1
 48
1.0
171
1
  6

172
1
173
1
174
1
140
1.0
141
1.0
175
1
  7

176
1
177
1
178
1
143
1.0
179
1
  8

270
1
271
1
272
1
145
1.0
146
1.0
273
1
  9

274
1
275
1
276
1
 42
1.0
 72
1
  3

 73
1
 74
1
 75
1
 94
63
  0
MATERIAL
  5
20
102
{ACAD_REACTORS
330
E
102
}
330
E
100
AcDbMaterial
  1
ByLayer
  2

 70
0
 40
1.0
 71
1
 41
1.0
 91
-1023410177
 42
1.0
 72
1
  3

 73
1
 74
1
 75
1
 44
0.5
 73
0
 45
1.0
 46
1.0
 77
1
  4

 78
1
 79
1
170
1
 48
1.0
171
1
  6

172
1
173
1
174
1
140
1.0
141
1.0
175
1
  7

176
1
177
1
178
1
143
1.0
179
1
  8

270
1
271
1
272
1
145
1.0
146
1.0
273
1
  9

274
1
275
1
276
1
 42
1.0
 72
1
  3

 73
1
 74
1
 75
1
 94
63
  0
MATERIAL
  5
21
102
{ACAD_REACTORS
330
E
102
}
330
E
100
AcDbMaterial
  1
Global
  2

 70
0
 40
1.0
 71
1
 41
1.0
 91
-1023410177
 42
1.0
 72
1
  3

 73
1
 74
1
 75
1
 44
0.5
 73
0
 45
1.0
 46
1.0
 77
1
  4

 78
1
 79
1
170
1
 48
1.0
171
1
  6

172
1
173
1
174
1
140
1.0
141
1.0
175
1
  7

176
1
177
1
178
1
143
1.0
179
1
  8

270
1
271
1
272
1
145
1.0
146
1.0
273
1
  9

274
1
275
1
276
1
 42
1.0
 72
1
  3

 73
1
 74
1
 75
1
 94
63
  0
MLINESTYLE
  5
22
102
{ACAD_REACTORS
330
10
102
}
330
10
100
AcDbMlineStyle
  2
Standard
 70
0
  3

 62
256
 51
90.0
 52
90.0
 71
2
 49
0.5
 62
256
  6
BYLAYER
 49
-0.5
 62
256
  6
BYLAYER
  0
MLEADERSTYLE
  5
2C
102
{ACAD_REACTORS
330
F
102
}
330
F
100
AcDbMLeaderStyle
179
2
170
2
171
1
172
0
 90
2
 40
0.0
 41
0.0
173
1
 91
-1056964608
 92
-2
290
1
 42
2.0
291
1
 43
8.0
  3
Standard
 44
4.0
300

342
29
174
1
175
1
176
0
178
1
 93
-1056964608
 45
4.0
292
0
297
0
 46
4.0
 94
-1056964608
 47
1.0
 49
1.0
140
1.0
294
1
141
0.0
177
0
142
1.0
295
0
296
0
143
3.75
271
0
272
9
273
9
  0
DICTIONARY
  5
2D
330
A
100
AcDbDictionary
280
1
281
1
  3
CREATED_BY_EZDXF
350
2E
  3
WRITTEN_BY_EZDXF
350
161
  0
DICTIONARYVAR
  5
2E
330
2D
100
DictionaryVariables
280
0
  1
1.4.3 @ 2026-03-19T14:36:18.677583+00:00
  0
VISUALSTYLE
  5
5A
102
{ACAD_REACTORS
330
16
102
}
330
16
100
AcDbVisualStyle
  2
2dWireframe
 70
4
 90
0
 40
0.6
 62
7
290
0
291
0
  0
VISUALSTYLE
  5
5B
102
{ACAD_REACTORS
330
16
102
}
330
16
100
AcDbVisualStyle
  2
Basic
 70
7
 90
1
 40
0.6
 62
7
290
0
291
1
  0
VISUALSTYLE
  5
5C
102
{ACAD_REACTORS
330
16
102
}
330
16
100
AcDbVisualStyle
  2
Brighten
 70
12
 90
2
 40
0.6
 62
7
290
0
291
1
  0
VISUALSTYLE
  5
5D
102
{ACAD_REACTORS
330
16
102
}
330
16
100
AcDbVisualStyle
  2
ColorChange
 70
16
 90
2
 40
0.6
 62
8
290
0
291
1
  0
VISUALSTYLE
  5
5E
102
{ACAD_REACTORS
330
16
102
}
330
16
100
AcDbVisualStyle
  2
Conceptual
 70
9
 90
3
 40
0.6
 62
7
290
0
291
0
  0
VISUALSTYLE
  5
5F
102
{ACAD_REACTORS
330
16
102
}
330
16
100
AcDbVisualStyle
  2
Dim
 70
11
 90
2
 40
0.6
 62
7
290
0
291
1
  0
VISUALSTYLE
  5
60
102
{ACAD_REACTORS
330
16
102
}
330
16
100
AcDbVisualStyle
  2
EdgeColorOff
 70
22
 90
2
 40
0.6
 62
7
290
0
291
1
  0
VISUALSTYLE
  5
61
102
{ACAD_REACTORS
330
16
102
}
330
16
100
AcDbVisualStyle
  2
Facepattern
 70
15
 90
2
 40
0.6
 62
7
290
0
291
1
  0
VISUALSTYLE
  5
62
102
{ACAD_REACTORS
330
16
102
}
330
16
100
AcDbVisualStyle
  2
Flat
 70
0
 90
2
 40
0.6
 62
7
290
0
291
1
  0
VISUALSTYLE
  5
63
102
{ACAD_REACTORS
330
16
102
}
330
16
100
AcDbVisualStyle
  2
FlatWithEdges
 70
1
 90
2
 40
0.6
 62
7
290
0
291
1
  0
VISUALSTYLE
  5
64
102
{ACAD_REACTORS
330
16
102
}
330
16
100
AcDbVisualStyle
  2
Gouraud
 70
2
 90
2
 40
0.6
 62
7
290
0
291
1
  0
VISUALSTYLE
  5
65
102
{ACAD_REACTORS
330
16
102
}
330
16
100
AcDbVisualStyle
  2
GouraudWithEdges
 70
3
 90
2
 40
0.6
 62
7
290
0
291
1
  0
VISUALSTYLE
  5
66
102
{ACAD_REACTORS
330
16
102
}
330
16
100
AcDbVisualStyle
  2
Hidden
 70
6
 90
1
 40
0.6
 62
7
290
0
291
0
  0
VISUALSTYLE
  5
67
102
{ACAD_REACTORS
330
16
102
}
330
16
100
AcDbVisualStyle
  2
JitterOff
 70
20
 90
2
 40
0.6
 62
7
290
0
291
1
  0
VISUALSTYLE
  5
68
102
{ACAD_REACTORS
330
16
102
}
330
16
100
AcDbVisualStyle
  2
Linepattern
 70
14
 90
2
 40
0.6
 62
7
290
0
291
1
  0
VISUALSTYLE
  5
69
102
{ACAD_REACTORS
330
16
102
}
330
16
100
AcDbVisualStyle
  2
Modeling
 70
10
 90
2
 40
0.6
 62
7
290
0
291
0
  0
VISUALSTYLE
  5
6A
102
{ACAD_REACTORS
330
16
102
}
330
16
100
AcDbVisualStyle
  2
OverhangOff
 70
21
 90
2
 40
0.6
 62
7
290
0
291
1
  0
VISUALSTYLE
  5
6B
102
{ACAD_REACTORS
330
16
102
}
330
16
100
AcDbVisualStyle
  2
Realistic
 70
8
 90
2
 40
0.6
 62
7
290
0
291
0
  0
VISUALSTYLE
  5
6C
102
{ACAD_REACTORS
330
16
102
}
330
16
100
AcDbVisualStyle
  2
Shaded
 70
27
 90
2
 40
0.6
 62
7
290
0
291
0
  0
VISUALSTYLE
  5
6D
102
{ACAD_REACTORS
330
16
102
}
330
16
100
AcDbVisualStyle
  2
Shaded with edges
 70
26
 90
2
 40
0.6
 62
7
290
0
291
0
  0
VISUALSTYLE
  5
6E
102
{ACAD_REACTORS
330
16
102
}
330
16
100
AcDbVisualStyle
  2
Shades of Gray
 70
23
 90
2
 40
0.6
 62
7
290
0
291
0
  0
VISUALSTYLE
  5
6F
102
{ACAD_REACTORS
330
16
102
}
330
16
100
AcDbVisualStyle
  2
Sketchy
 70
24
 90
1
 40
0.6
 62
7
290
0
291
0
  0
VISUALSTYLE
  5
70
102
{ACAD_REACTORS
330
16
102
}
330
16
100
AcDbVisualStyle
  2
Thicken
 70
13
 90
2
 40
0.6
 62
7
290
0
291
1
  0
VISUALSTYLE
  5
71
102
{ACAD_REACTORS
330
16
102
}
330
16
100
AcDbVisualStyle
  2
Wireframe
 70
5
 90
0
 40
0.6
 62
7
290
0
291
0
  0
VISUALSTYLE
  5
72
102
{ACAD_REACTORS
330
16
102
}
330
16
100
AcDbVisualStyle
  2
X-Ray
 70
25
 90
2
 40
0.5
 62
7
290
0
291
0
  0
DICTIONARYVAR
  5
161
330
2D
100
DictionaryVariables
280
0
  1
1.4.3 @ 2026-03-19T21:07:25.568338+00:00
  0
ENDSEC
  0
EOF
