  0
SECTION
  2
HEADER
  9
$ACADVER
  1
AC1024
  9
$ACADMAINTVER
 70
6
  9
$DWGCODEPAGE
  3
ANSI_1252
  9
$LASTSAVEDBY
  1
ezdxf
  9
$INSBASE
 10
0.0
 20
0.0
 30
0.0
  9
$EXTMIN
 10
1e+20
 20
1e+20
 30
1e+20
  9
$EXTMAX
 10
-1e+20
 20
-1e+20
 30
-1e+20
  9
$LIMMIN
 10
0.0
 20
0.0
  9
$LIMMAX
 10
420.0
 20
297.0
  9
$ORTHOMODE
 70
0
  9
$REGENMODE
 70
1
  9
$FILLMODE
 70
1
  9
$QTEXTMODE
 70
0
  9
$MIRRTEXT
 70
1
  9
$LTSCALE
 40
1.0
  9
$ATTMODE
 70
1
  9
$TEXTSIZE
 40
2.5
  9
$TRACEWID
 40
1.0
  9
$TEXTSTYLE
  7
OpenSans
  9
$CLAYER
  8
0
  9
$CELTYPE
  6
ByLayer
  9
$CECOLOR
 62
256
  9
$CELTSCALE
 40
1.0
  9
$DISPSILH
 70
0
  9
$DIMSCALE
 40
1.0
  9
$DIMASZ
 40
0.175
  9
$DIMEXO
 40
0.125
  9
$DIMDLI
 40
3.75
  9
$DIMRND
 40
0.0
  9
$DIMDLE
 40
0.0
  9
$DIMEXE
 40
0.375
  9
$DIMTP
 40
0.0
  9
$DIMTM
 40
0.0
  9
$DIMTXT
 40
0.25
  9
$DIMCEN
 40
2.5
  9
$DIMTSZ
 40
0.0
  9
$DIMTOL
 70
0
  9
$DIMLIM
 70
0
  9
$DIMTIH
 70
0
  9
$DIMTOH
 70
0
  9
$DIMSE1
 70
0
  9
$DIMSE2
 70
0
  9
$DIMTAD
 70
1
  9
$DIMZIN
 70
12
  9
$DIMBLK
  1
ARCHTICK
  9
$DIMASO
 70
1
  9
$DIMSHO
 70
1
  9
$DIMPOST
  1

  9
$DIMAPOST
  1

  9
$DIMALT
 70
0
  9
$DIMALTD
 70
3
  9
$DIMALTF
 40
0.03937007874
  9
$DIMLFAC
 40
100.0
  9
$DIMTOFL
 70
1
  9
$DIMTVP
 40
0.0
  9
$DIMTIX
 70
0
  9
$DIMSOXD
 70
0
  9
$DIMSAH
 70
0
  9
$DIMBLK1
  1

  9
$DIMBLK2
  1

  9
$DIMSTYLE
  2
EZDXF
  9
$DIMCLRD
 70
0
  9
$DIMCLRE
 70
0
  9
$DIMCLRT
 70
0
  9
$DIMTFAC
 40
0.5
  9
$DIMGAP
 40
0.1
  9
$DIMJUST
 70
0
  9
$DIMSD1
 70
0
  9
$DIMSD2
 70
0
  9
$DIMTOLJ
 70
0
  9
$DIMTZIN
 70
8
  9
$DIMALTZ
 70
0
  9
$DIMALTTZ
 70
0
  9
$DIMUPT
 70
1
  9
$DIMDEC
 70
2
  9
$DIMTDEC
 70
2
  9
$DIMALTU
 70
2
  9
$DIMALTTD
 70
3
  9
$DIMTXSTY
  7
OpenSansCondensed-Light
  9
$DIMAUNIT
 70
0
  9
$DIMADEC
 70
2
  9
$DIMALTRND
 40
0.0
  9
$DIMAZIN
 70
3
  9
$DIMDSEP
 70
46
  9
$DIMATFIT
 70
3
  9
$DIMFRAC
 70
0
  9
$DIMLDRBLK
  1

  9
$DIMLUNIT
 70
2
  9
$DIMLWD
 70
-2
  9
$DIMLWE
 70
-2
  9
$DIMTMOVE
 70
2
  9
$DIMFXL
 40
1.0
  9
$DIMFXLON
 70
0
  9
$DIMJOGANG
 40
0.785398163397
  9
$DIMTFILL
 70
0
  9
$DIMTFILLCLR
 70
0
  9
$DIMARCSYM
 70
0
  9
$DIMLTYPE
  6

  9
$DIMLTEX1
  6

  9
$DIMLTEX2
  6

  9
$DIMTXTDIRECTION
 70
0
  9
$LUNITS
 70
2
  9
$LUPREC
 70
4
  9
$SKETCHINC
 40
1.0
  9
$FILLETRAD
 40
10.0
  9
$AUNITS
 70
0
  9
$AUPREC
 70
2
  9
$MENU
  1
.
  9
$ELEVATION
 40
0.0
  9
$PELEVATION
 40
0.0
  9
$THICKNESS
 40
0.0
  9
$LIMCHECK
 70
0
  9
$CHAMFERA
 40
0.0
  9
$CHAMFERB
 40
0.0
  9
$CHAMFERC
 40
0.0
  9
$CHAMFERD
 40
0.0
  9
$SKPOLY
 70
0
  9
$TDCREATE
 40
2461120.005150463
  9
$TDUCREATE
 40
2458532.153996898
  9
$TDUPDATE
 40
2461120.005150463
  9
$TDUUPDATE
 40
2458532.1544311
  9
$TDINDWG
 40
0.0
  9
$TDUSRTIMER
 40
0.0
  9
$USRTIMER
 70
1
  9
$ANGBASE
 50
0.0
  9
$ANGDIR
 70
0
  9
$PDMODE
 70
0
  9
$PDSIZE
 40
0.0
  9
$PLINEWID
 40
0.0
  9
$SPLFRAME
 70
0
  9
$SPLINETYPE
 70
6
  9
$SPLINESEGS
 70
8
  9
$HANDSEED
  5
1D5
  9
$SURFTAB1
 70
6
  9
$SURFTAB2
 70
6
  9
$SURFTYPE
 70
6
  9
$SURFU
 70
6
  9
$SURFV
 70
6
  9
$UCSBASE
  2

  9
$UCSNAME
  2

  9
$UCSORG
 10
0.0
 20
0.0
 30
0.0
  9
$UCSXDIR
 10
1.0
 20
0.0
 30
0.0
  9
$UCSYDIR
 10
0.0
 20
1.0
 30
0.0
  9
$UCSORTHOREF
  2

  9
$UCSORTHOVIEW
 70
0
  9
$UCSORGTOP
 10
0.0
 20
0.0
 30
0.0
  9
$UCSORGBOTTOM
 10
0.0
 20
0.0
 30
0.0
  9
$UCSORGLEFT
 10
0.0
 20
0.0
 30
0.0
  9
$UCSORGRIGHT
 10
0.0
 20
0.0
 30
0.0
  9
$UCSORGFRONT
 10
0.0
 20
0.0
 30
0.0
  9
$UCSORGBACK
 10
0.0
 20
0.0
 30
0.0
  9
$PUCSBASE
  2

  9
$PUCSNAME
  2

  9
$PUCSORG
 10
0.0
 20
0.0
 30
0.0
  9
$PUCSXDIR
 10
1.0
 20
0.0
 30
0.0
  9
$PUCSYDIR
 10
0.0
 20
1.0
 30
0.0
  9
$PUCSORTHOREF
  2

  9
$PUCSORTHOVIEW
 70
0
  9
$PUCSORGTOP
 10
0.0
 20
0.0
 30
0.0
  9
$PUCSORGBOTTOM
 10
0.0
 20
0.0
 30
0.0
  9
$PUCSORGLEFT
 10
0.0
 20
0.0
 30
0.0
  9
$PUCSORGRIGHT
 10
0.0
 20
0.0
 30
0.0
  9
$PUCSORGFRONT
 10
0.0
 20
0.0
 30
0.0
  9
$PUCSORGBACK
 10
0.0
 20
0.0
 30
0.0
  9
$USERI1
 70
0
  9
$USERI2
 70
0
  9
$USERI3
 70
0
  9
$USERI4
 70
0
  9
$USERI5
 70
0
  9
$USERR1
 40
0.0
  9
$USERR2
 40
0.0
  9
$USERR3
 40
0.0
  9
$USERR4
 40
0.0
  9
$USERR5
 40
0.0
  9
$WORLDVIEW
 70
1
  9
$SHADEDGE
 70
3
  9
$SHADEDIF
 70
70
  9
$TILEMODE
 70
1
  9
$MAXACTVP
 70
64
  9
$PINSBASE
 10
0.0
 20
0.0
 30
0.0
  9
$PLIMCHECK
 70
0
  9
$PEXTMIN
 10
1e+20
 20
1e+20
 30
1e+20
  9
$PEXTMAX
 10
-1e+20
 20
-1e+20
 30
-1e+20
  9
$PLIMMIN
 10
0.0
 20
0.0
  9
$PLIMMAX
 10
420.0
 20
297.0
  9
$UNITMODE
 70
0
  9
$VISRETAIN
 70
1
  9
$PLINEGEN
 70
0
  9
$PSLTSCALE
 70
1
  9
$TREEDEPTH
 70
3020
  9
$CMLSTYLE
  2
Standard
  9
$CMLJUST
 70
0
  9
$CMLSCALE
 40
20.0
  9
$PROXYGRAPHICS
 70
1
  9
$MEASUREMENT
 70
1
  9
$CELWEIGHT
370
-1
  9
$ENDCAPS
280
0
  9
$JOINSTYLE
280
0
  9
$LWDISPLAY
290
1
  9
$INSUNITS
 70
6
  9
$HYPERLINKBASE
  1

  9
$STYLESHEET
  1

  9
$XEDIT
290
1
  9
$CEPSNTYPE
380
0
  9
$PSTYLEMODE
290
1
  9
$FINGERPRINTGUID
  2
{AC2A5939-23B1-4FD1-BC4B-AEF54A1149D9}
  9
$VERSIONGUID
  2
{3231FBB7-93DF-45ED-A5C2-FDB9847402C4}
  9
$EXTNAMES
290
1
  9
$PSVPSCALE
 40
0.0
  9
$OLESTARTUP
290
0
  9
$SORTENTS
280
127
  9
$INDEXCTL
280
0
  9
$HIDETEXT
280
1
  9
$XCLIPFRAME
280
1
  9
$HALOGAP
280
0
  9
$OBSCOLOR
 70
257
  9
$OBSLTYPE
280
0
  9
$INTERSECTIONDISPLAY
280
0
  9
$INTERSECTIONCOLOR
 70
257
  9
$DIMASSOC
280
2
  9
$PROJECTNAME
  1

  9
$CAMERADISPLAY
290
0
  9
$LENSLENGTH
 40
50.0
  9
$CAMERAHEIGHT
 40
0.0
  9
$STEPSPERSEC
 40
24.0
  9
$STEPSIZE
 40
100.0
  9
$3DDWFPREC
 40
2.0
  9
$PSOLWIDTH
 40
0.005
  9
$PSOLHEIGHT
 40
0.08
  9
$LOFTANG1
 40
1.570796326795
  9
$LOFTANG2
 40
1.570796326795
  9
$LOFTMAG1
 40
0.0
  9
$LOFTMAG2
 40
0.0
  9
$LOFTPARAM
 70
7
  9
$LOFTNORMALS
280
1
  9
$LATITUDE
 40
37.795
  9
$LONGITUDE
 40
-122.394
  9
$NORTHDIRECTION
 40
0.0
  9
$TIMEZONE
 70
-8000
  9
$LIGHTGLYPHDISPLAY
280
1
  9
$TILEMODELIGHTSYNCH
280
1
  9
$CMATERIAL
347
20
  9
$SOLIDHIST
280
0
  9
$SHOWHIST
280
1
  9
$DWFFRAME
280
2
  9
$DGNFRAME
280
2
  9
$REALWORLDSCALE
290
1
  9
$INTERFERECOLOR
 62
256
  9
$CSHADOW
280
0
  9
$SHADOWPLANELOCATION
 40
0.0
  0
ENDSEC
  0
SECTION
  2
CLASSES
  0
CLASS
  1
ACDBDICTIONARYWDFLT
  2
AcDbDictionaryWithDefault
  3
ObjectDBX Classes
 90
0
 91
0
280
0
281
0
  0
CLASS
  1
SUN
  2
AcDbSun
  3
SCENEOE
 90
1153
 91
0
280
0
281
0
  0
CLASS
  1
VISUALSTYLE
  2
AcDbVisualStyle
  3
ObjectDBX Classes
 90
4095
 91
0
280
0
281
0
  0
CLASS
  1
MATERIAL
  2
AcDbMaterial
  3
ObjectDBX Classes
 90
1153
 91
0
280
0
281
0
  0
CLASS
  1
SCALE
  2
AcDbScale
  3
ObjectDBX Classes
 90
1153
 91
0
280
0
281
0
  0
CLASS
  1
TABLESTYLE
  2
AcDbTableStyle
  3
ObjectDBX Classes
 90
4095
 91
0
280
0
281
0
  0
CLASS
  1
MLEADERSTYLE
  2
AcDbMLeaderStyle
  3
ACDB_MLEADERSTYLE_CLASS
 90
4095
 91
0
280
0
281
0
  0
CLASS
  1
DICTIONARYVAR
  2
AcDbDictionaryVar
  3
ObjectDBX Classes
 90
0
 91
0
280
0
281
0
  0
CLASS
  1
CELLSTYLEMAP
  2
AcDbCellStyleMap
  3
ObjectDBX Classes
 90
1152
 91
0
280
0
281
0
  0
CLASS
  1
MENTALRAYRENDERSETTINGS
  2
AcDbMentalRayRenderSettings
  3
SCENEOE
 90
1024
 91
0
280
0
281
0
  0
CLASS
  1
ACDBDETAILVIEWSTYLE
  2
AcDbDetailViewStyle
  3
ObjectDBX Classes
 90
1025
 91
0
280
0
281
0
  0
CLASS
  1
ACDBSECTIONVIEWSTYLE
  2
AcDbSectionViewStyle
  3
ObjectDBX Classes
 90
1025
 91
0
280
0
281
0
  0
CLASS
  1
RASTERVARIABLES
  2
AcDbRasterVariables
  3
ISM
 90
0
 91
0
280
0
281
0
  0
CLASS
  1
ACDBPLACEHOLDER
  2
AcDbPlaceHolder
  3
ObjectDBX Classes
 90
0
 91
0
280
0
281
0
  0
CLASS
  1
LAYOUT
  2
AcDbLayout
  3
ObjectDBX Classes
 90
0
 91
0
280
0
281
0
  0
ENDSEC
  0
SECTION
  2
TABLES
  0
TABLE
  2
VPORT
  5
8
330
0
100
AcDbSymbolTable
 70
1
  0
VPORT
  5
23
330
8
100
AcDbSymbolTableRecord
100
AcDbViewportTableRecord
  2
*Active
 70
0
 10
0.0
 20
0.0
 11
1.0
 21
1.0
 12
0.0
 22
0.0
 13
0.0
 23
0.0
 14
0.5
 24
0.5
 15
0.5
 25
0.5
 16
0.0
 26
0.0
 36
1.0
 17
0.0
 27
0.0
 37
0.0
 40
1000.0
 41
1.34
 42
50.0
 43
0.0
 44
0.0
 50
0.0
 51
0.0
 71
0
 72
1000
 73
1
 74
3
 75
0
 76
0
 77
0
 78
0
281
0
 65
0
146
0.0
  0
ENDTAB
  0
TABLE
  2
LTYPE
  5
2
330
0
100
AcDbSymbolTable
 70
21
  0
LTYPE
  5
24
330
2
100
AcDbSymbolTableRecord
100
AcDbLinetypeTableRecord
  2
ByBlock
 70
0
  3

 72
65
 73
0
 40
0.0
  0
LTYPE
  5
25
330
2
100
AcDbSymbolTableRecord
100
AcDbLinetypeTableRecord
  2
ByLayer
 70
0
  3

 72
65
 73
0
 40
0.0
  0
LTYPE
  5
26
330
2
100
AcDbSymbolTableRecord
100
AcDbLinetypeTableRecord
  2
Continuous
 70
0
  3

 72
65
 73
0
 40
0.0
  0
LTYPE
  5
2F
330
2
100
AcDbSymbolTableRecord
100
AcDbLinetypeTableRecord
  2
CENTER
 70
0
  3
Center ____ _ ____ _ ____ _ ____ _ ____ _ ____
 72
65
 73
4
 40
5.08
 49
3.175
 74
0
 49
-0.635
 74
0
 49
0.635
 74
0
 49
-0.635
 74
0
  0
LTYPE
  5
30
330
2
100
AcDbSymbolTableRecord
100
AcDbLinetypeTableRecord
  2
CENTERX2
 70
0
  3
Center (2x) ________  __  ________  __  ________
 72
65
 73
4
 40
8.89
 49
6.35
 74
0
 49
-0.635
 74
0
 49
1.27
 74
0
 49
-0.635
 74
0
  0
LTYPE
  5
31
330
2
100
AcDbSymbolTableRecord
100
AcDbLinetypeTableRecord
  2
CENTER2
 70
0
  3
Center (.5x) ____ _ ____ _ ____ _ ____ _ ____
 72
65
 73
4
 40
2.54
 49
1.587
 74
0
 49
-0.318
 74
0
 49
0.318
 74
0
 49
-0.318
 74
0
  0
LTYPE
  5
32
330
2
100
AcDbSymbolTableRecord
100
AcDbLinetypeTableRecord
  2
DASHED
 70
0
  3
Dashed __ __ __ __ __ __ __ __ __ __ __ __ __ _
 72
65
 73
2
 40
1.524
 49
1.27
 74
0
 49
-0.254
 74
0
  0
LTYPE
  5
33
330
2
100
AcDbSymbolTableRecord
100
AcDbLinetypeTableRecord
  2
DASHEDX2
 70
0
  3
Dashed (2x) ____  ____  ____  ____  ____  ____
 72
65
 73
2
 40
3.048
 49
2.54
 74
0
 49
-0.508
 74
0
  0
LTYPE
  5
34
330
2
100
AcDbSymbolTableRecord
100
AcDbLinetypeTableRecord
  2
DASHED2
 70
0
  3
Dashed (.5x) _ _ _ _ _ _ _ _ _ _ _ _ _ _
 72
65
 73
2
 40
0.762
 49
0.635
 74
0
 49
-0.127
 74
0
  0
LTYPE
  5
35
330
2
100
AcDbSymbolTableRecord
100
AcDbLinetypeTableRecord
  2
PHANTOM
 70
0
  3
Phantom ______  __  __  ______  __  __  ______
 72
65
 73
6
 40
6.35
 49
3.175
 74
0
 49
-0.635
 74
0
 49
0.635
 74
0
 49
-0.635
 74
0
 49
0.635
 74
0
 49
-0.635
 74
0
  0
LTYPE
  5
36
330
2
100
AcDbSymbolTableRecord
100
AcDbLinetypeTableRecord
  2
PHANTOMX2
 70
0
  3
Phantom (2x)____________    ____    ____    ____________
 72
65
 73
6
 40
10.795
 49
6.35
 74
0
 49
-0.635
 74
0
 49
1.27
 74
0
 49
-0.635
 74
0
 49
1.27
 74
0
 49
-0.635
 74
0
  0
LTYPE
  5
37
330
2
100
AcDbSymbolTableRecord
100
AcDbLinetypeTableRecord
  2
PHANTOM2
 70
0
  3
Phantom (.5x) ___ _ _ ___ _ _ ___ _ _ ___ _ _ ___
 72
65
 73
6
 40
3.175
 49
1.587
 74
0
 49
-0.318
 74
0
 49
0.318
 74
0
 49
-0.318
 74
0
 49
0.318
 74
0
 49
-0.318
 74
0
  0
LTYPE
  5
38
330
2
100
AcDbSymbolTableRecord
100
AcDbLinetypeTableRecord
  2
DASHDOT
 70
0
  3
Dash dot __ . __ . __ . __ . __ . __ . __ . __
 72
65
 73
4
 40
3.556
 49
2.54
 74
0
 49
-0.508
 74
0
 49
0.0
 74
0
 49
-0.508
 74
0
  0
LTYPE
  5
39
330
2
100
AcDbSymbolTableRecord
100
AcDbLinetypeTableRecord
  2
DASHDOTX2
 70
0
  3
Dash dot (2x) ____  .  ____  .  ____  .  ____
 72
65
 73
4
 40
6.096
 49
5.08
 74
0
 49
-0.508
 74
0
 49
0.0
 74
0
 49
-0.508
 74
0
  0
LTYPE
  5
3A
330
2
100
AcDbSymbolTableRecord
100
AcDbLinetypeTableRecord
  2
DASHDOT2
 70
0
  3
Dash dot (.5x) _ . _ . _ . _ . _ . _ . _ . _
 72
65
 73
4
 40
1.778
 49
1.27
 74
0
 49
-0.254
 74
0
 49
0.0
 74
0
 49
-0.254
 74
0
  0
LTYPE
  5
3B
330
2
100
AcDbSymbolTableRecord
100
AcDbLinetypeTableRecord
  2
DOT
 70
0
  3
Dot .  .  .  .  .  .  .  .  .  .  .  .  .  .  .  .
 72
65
 73
2
 40
0.508
 49
0.0
 74
0
 49
-0.508
 74
0
  0
LTYPE
  5
3C
330
2
100
AcDbSymbolTableRecord
100
AcDbLinetypeTableRecord
  2
DOTX2
 70
0
  3
Dot (2x) .    .    .    .    .    .    .    . 
 72
65
 73
2
 40
1.016
 49
0.0
 74
0
 49
-1.016
 74
0
  0
LTYPE
  5
3D
330
2
100
AcDbSymbolTableRecord
100
AcDbLinetypeTableRecord
  2
DOT2
 70
0
  3
Dot (.5) . . . . . . . . . . . . . . . . . . . 
 72
65
 73
2
 40
0.254
 49
0.0
 74
0
 49
-0.254
 74
0
  0
LTYPE
  5
3E
330
2
100
AcDbSymbolTableRecord
100
AcDbLinetypeTableRecord
  2
DIVIDE
 70
0
  3
Divide __ . . __ . . __ . . __ . . __ . . __
 72
65
 73
6
 40
4.064
 49
2.54
 74
0
 49
-0.508
 74
0
 49
0.0
 74
0
 49
-0.508
 74
0
 49
0.0
 74
0
 49
-0.508
 74
0
  0
LTYPE
  5
3F
330
2
100
AcDbSymbolTableRecord
100
AcDbLinetypeTableRecord
  2
DIVIDEX2
 70
0
  3
Divide (2x) ____  . .  ____  . .  ____  . .  ____
 72
65
 73
6
 40
6.604
 49
5.08
 74
0
 49
-0.508
 74
0
 49
0.0
 74
0
 49
-0.508
 74
0
 49
0.0
 74
0
 49
-0.508
 74
0
  0
LTYPE
  5
40
330
2
100
AcDbSymbolTableRecord
100
AcDbLinetypeTableRecord
  2
DIVIDE2
 70
0
  3
Divide(.5x) _ . _ . _ . _ . _ . _ . _ . _
 72
65
 73
6
 40
2.032
 49
1.27
 74
0
 49
-0.254
 74
0
 49
0.0
 74
0
 49
-0.254
 74
0
 49
0.0
 74
0
 49
-0.254
 74
0
  0
ENDTAB
  0
TABLE
  2
LAYER
  5
1
330
0
100
AcDbSymbolTable
 70
63
  0
LAYER
  5
27
330
1
100
AcDbSymbolTableRecord
100
AcDbLayerTableRecord
  2
0
 70
0
 62
7
  6
Continuous
370
-3
390
13
347
21
  0
LAYER
  5
28
330
1
100
AcDbSymbolTableRecord
100
AcDbLayerTableRecord
  2
Defpoints
 70
0
 62
7
  6
Continuous
290
0
370
-3
390
13
347
21
  0
LAYER
  5
90
330
1
100
AcDbSymbolTableRecord
100
AcDbLayerTableRecord
  2
BORDER
 70
0
 62
7
  6
Continuous
370
70
390
13
347
21
  0
LAYER
  5
91
330
1
100
AcDbSymbolTableRecord
100
AcDbLayerTableRecord
  2
TITLEBLOCK
 70
0
 62
7
  6
Continuous
370
50
390
13
347
21
  0
LAYER
  5
92
330
1
100
AcDbSymbolTableRecord
100
AcDbLayerTableRecord
  2
SITE_BOUNDARY
 70
0
 62
1
  6
DASHDOT
370
70
390
13
347
21
  0
LAYER
  5
93
330
1
100
AcDbSymbolTableRecord
100
AcDbLayerTableRecord
  2
ZONE_BOUNDARY
 70
0
 62
40
  6
DASHED
370
50
390
13
347
21
  0
LAYER
  5
94
330
1
100
AcDbSymbolTableRecord
100
AcDbLayerTableRecord
  2
BUILDINGS
 70
0
 62
7
  6
Continuous
370
50
390
13
347
21
  0
LAYER
  5
95
330
1
100
AcDbSymbolTableRecord
100
AcDbLayerTableRecord
  2
BUILDINGS_EXISTING
 70
0
 62
30
  6
Continuous
370
50
390
13
347
21
  0
LAYER
  5
96
330
1
100
AcDbSymbolTableRecord
100
AcDbLayerTableRecord
  2
HATCH_RESIDENTIAL_LOW
 70
0
 62
40
  6
Continuous
370
5
390
13
347
21
  0
LAYER
  5
97
330
1
100
AcDbSymbolTableRecord
100
AcDbLayerTableRecord
  2
HATCH_RESIDENTIAL_MED
 70
0
 62
142
  6
Continuous
370
5
390
13
347
21
  0
LAYER
  5
98
330
1
100
AcDbSymbolTableRecord
100
AcDbLayerTableRecord
  2
HATCH_RESIDENTIAL_HIGH
 70
0
 62
150
  6
Continuous
370
5
390
13
347
21
  0
LAYER
  5
99
330
1
100
AcDbSymbolTableRecord
100
AcDbLayerTableRecord
  2
HATCH_COMMERCIAL
 70
0
 62
10
  6
Continuous
370
5
390
13
347
21
  0
LAYER
  5
9A
330
1
100
AcDbSymbolTableRecord
100
AcDbLayerTableRecord
  2
HATCH_GREEN
 70
0
 62
82
  6
Continuous
370
5
390
13
347
21
  0
LAYER
  5
9B
330
1
100
AcDbSymbolTableRecord
100
AcDbLayerTableRecord
  2
HATCH_EDUCATION
 70
0
 62
50
  6
Continuous
370
5
390
13
347
21
  0
LAYER
  5
9C
330
1
100
AcDbSymbolTableRecord
100
AcDbLayerTableRecord
  2
HATCH_HEALTH
 70
0
 62
200
  6
Continuous
370
5
390
13
347
21
  0
LAYER
  5
9D
330
1
100
AcDbSymbolTableRecord
100
AcDbLayerTableRecord
  2
HATCH_RELIGIOUS
 70
0
 62
170
  6
Continuous
370
5
390
13
347
21
  0
LAYER
  5
9E
330
1
100
AcDbSymbolTableRecord
100
AcDbLayerTableRecord
  2
HATCH_ROAD
 70
0
 62
253
  6
Continuous
370
5
390
13
347
21
  0
LAYER
  5
9F
330
1
100
AcDbSymbolTableRecord
100
AcDbLayerTableRecord
  2
HATCH_WATER
 70
0
 62
150
  6
Continuous
370
5
390
13
347
21
  0
LAYER
  5
A0
330
1
100
AcDbSymbolTableRecord
100
AcDbLayerTableRecord
  2
HATCH_SOLAR
 70
0
 62
50
  6
Continuous
370
5
390
13
347
21
  0
LAYER
  5
A1
330
1
100
AcDbSymbolTableRecord
100
AcDbLayerTableRecord
  2
ROADS_PRIMARY
 70
0
 62
7
  6
Continuous
370
50
390
13
347
21
  0
LAYER
  5
A2
330
1
100
AcDbSymbolTableRecord
100
AcDbLayerTableRecord
  2
ROADS_SECONDARY
 70
0
 62
30
  6
Continuous
370
35
390
13
347
21
  0
LAYER
  5
A3
330
1
100
AcDbSymbolTableRecord
100
AcDbLayerTableRecord
  2
ROADS_LOCAL
 70
0
 62
253
  6
Continuous
370
25
390
13
347
21
  0
LAYER
  5
A4
330
1
100
AcDbSymbolTableRecord
100
AcDbLayerTableRecord
  2
ROADS_CENTER
 70
0
 62
4
  6
CENTER
370
18
390
13
347
21
  0
LAYER
  5
A5
330
1
100
AcDbSymbolTableRecord
100
AcDbLayerTableRecord
  2
BRT_LINE
 70
0
 62
1
  6
DASHED
370
35
390
13
347
21
  0
LAYER
  5
A6
330
1
100
AcDbSymbolTableRecord
100
AcDbLayerTableRecord
  2
BRT_STATION
 70
0
 62
1
  6
Continuous
370
35
390
13
347
21
  0
LAYER
  5
A7
330
1
100
AcDbSymbolTableRecord
100
AcDbLayerTableRecord
  2
PEDESTRIAN
 70
0
 62
3
  6
DASHED
370
18
390
13
347
21
  0
LAYER
  5
A8
330
1
100
AcDbSymbolTableRecord
100
AcDbLayerTableRecord
  2
TREES
 70
0
 62
82
  6
Continuous
370
18
390
13
347
21
  0
LAYER
  5
A9
330
1
100
AcDbSymbolTableRecord
100
AcDbLayerTableRecord
  2
GREEN_CORRIDOR
 70
0
 62
3
  6
Continuous
370
25
390
13
347
21
  0
LAYER
  5
AA
330
1
100
AcDbSymbolTableRecord
100
AcDbLayerTableRecord
  2
GREEN_BELT
 70
0
 62
94
  6
Continuous
370
25
390
13
347
21
  0
LAYER
  5
AB
330
1
100
AcDbSymbolTableRecord
100
AcDbLayerTableRecord
  2
CONTOUR_MAJOR
 70
0
 62
46
  6
Continuous
370
25
390
13
347
21
  0
LAYER
  5
AC
330
1
100
AcDbSymbolTableRecord
100
AcDbLayerTableRecord
  2
CONTOUR_MINOR
 70
0
 62
46
  6
Continuous
370
13
390
13
347
21
  0
LAYER
  5
AD
330
1
100
AcDbSymbolTableRecord
100
AcDbLayerTableRecord
  2
WATER_CHANNEL
 70
0
 62
5
  6
Continuous
370
25
390
13
347
21
  0
LAYER
  5
AE
330
1
100
AcDbSymbolTableRecord
100
AcDbLayerTableRecord
  2
EXISTING_STRUCT
 70
0
 62
30
  6
Continuous
370
50
390
13
347
21
  0
LAYER
  5
AF
330
1
100
AcDbSymbolTableRecord
100
AcDbLayerTableRecord
  2
HIGHWAY
 70
0
 62
1
  6
DASHED
370
50
390
13
347
21
  0
LAYER
  5
B0
330
1
100
AcDbSymbolTableRecord
100
AcDbLayerTableRecord
  2
DIMENSIONS
 70
0
 62
2
  6
Continuous
370
18
390
13
347
21
  0
LAYER
  5
B1
330
1
100
AcDbSymbolTableRecord
100
AcDbLayerTableRecord
  2
TEXT_TITLE
 70
0
 62
7
  6
Continuous
370
25
390
13
347
21
  0
LAYER
  5
B2
330
1
100
AcDbSymbolTableRecord
100
AcDbLayerTableRecord
  2
TEXT_LABEL
 70
0
 62
7
  6
Continuous
370
18
390
13
347
21
  0
LAYER
  5
B3
330
1
100
AcDbSymbolTableRecord
100
AcDbLayerTableRecord
  2
TEXT_NOTE
 70
0
 62
7
  6
Continuous
370
13
390
13
347
21
  0
LAYER
  5
B4
330
1
100
AcDbSymbolTableRecord
100
AcDbLayerTableRecord
  2
ANNOTATION
 70
0
 62
7
  6
Continuous
370
18
390
13
347
21
  0
LAYER
  5
B5
330
1
100
AcDbSymbolTableRecord
100
AcDbLayerTableRecord
  2
NORTH_ARROW
 70
0
 62
7
  6
Continuous
370
35
390
13
347
21
  0
LAYER
  5
B6
330
1
100
AcDbSymbolTableRecord
100
AcDbLayerTableRecord
  2
SCALE_BAR
 70
0
 62
7
  6
Continuous
370
25
390
13
347
21
  0
LAYER
  5
B7
330
1
100
AcDbSymbolTableRecord
100
AcDbLayerTableRecord
  2
SETBACKS
 70
0
 62
1
  6
DASHED
370
13
390
13
347
21
  0
LAYER
  5
B8
330
1
100
AcDbSymbolTableRecord
100
AcDbLayerTableRecord
  2
LOT_GRID
 70
0
 62
253
  6
DASHED
370
5
390
13
347
21
  0
LAYER
  5
B9
330
1
100
AcDbSymbolTableRecord
100
AcDbLayerTableRecord
  2
HEIGHT_2FL
 70
0
 62
82
  6
Continuous
370
25
390
13
347
21
  0
LAYER
  5
BA
330
1
100
AcDbSymbolTableRecord
100
AcDbLayerTableRecord
  2
HEIGHT_46FL
 70
0
 62
150
  6
Continuous
370
25
390
13
347
21
  0
LAYER
  5
BB
330
1
100
AcDbSymbolTableRecord
100
AcDbLayerTableRecord
  2
HEIGHT_68FL
 70
0
 62
30
  6
Continuous
370
25
390
13
347
21
  0
LAYER
  5
BC
330
1
100
AcDbSymbolTableRecord
100
AcDbLayerTableRecord
  2
HEIGHT_1014FL
 70
0
 62
1
  6
Continuous
370
35
390
13
347
21
  0
LAYER
  5
BD
330
1
100
AcDbSymbolTableRecord
100
AcDbLayerTableRecord
  2
HATCH_H2
 70
0
 62
82
  6
Continuous
370
5
390
13
347
21
  0
LAYER
  5
BE
330
1
100
AcDbSymbolTableRecord
100
AcDbLayerTableRecord
  2
HATCH_H46
 70
0
 62
150
  6
Continuous
370
5
390
13
347
21
  0
LAYER
  5
BF
330
1
100
AcDbSymbolTableRecord
100
AcDbLayerTableRecord
  2
HATCH_H68
 70
0
 62
30
  6
Continuous
370
5
390
13
347
21
  0
LAYER
  5
C0
330
1
100
AcDbSymbolTableRecord
100
AcDbLayerTableRecord
  2
HATCH_H1014
 70
0
 62
1
  6
Continuous
370
5
390
13
347
21
  0
LAYER
  5
C1
330
1
100
AcDbSymbolTableRecord
100
AcDbLayerTableRecord
  2
GROUND
 70
0
 62
46
  6
Continuous
370
50
390
13
347
21
  0
LAYER
  5
C2
330
1
100
AcDbSymbolTableRecord
100
AcDbLayerTableRecord
  2
ASPHALT
 70
0
 62
253
  6
Continuous
370
35
390
13
347
21
  0
LAYER
  5
C3
330
1
100
AcDbSymbolTableRecord
100
AcDbLayerTableRecord
  2
SIDEWALK_CS
 70
0
 62
7
  6
Continuous
370
25
390
13
347
21
  0
LAYER
  5
C4
330
1
100
AcDbSymbolTableRecord
100
AcDbLayerTableRecord
  2
MEDIAN_CS
 70
0
 62
3
  6
Continuous
370
25
390
13
347
21
  0
LAYER
  5
C5
330
1
100
AcDbSymbolTableRecord
100
AcDbLayerTableRecord
  2
BIKE_CS
 70
0
 62
82
  6
Continuous
370
25
390
13
347
21
  0
LAYER
  5
C6
330
1
100
AcDbSymbolTableRecord
100
AcDbLayerTableRecord
  2
BRT_CS
 70
0
 62
1
  6
Continuous
370
25
390
13
347
21
  0
LAYER
  5
C7
330
1
100
AcDbSymbolTableRecord
100
AcDbLayerTableRecord
  2
TREE_CS
 70
0
 62
3
  6
Continuous
370
18
390
13
347
21
  0
LAYER
  5
C8
330
1
100
AcDbSymbolTableRecord
100
AcDbLayerTableRecord
  2
HATCH_ASPHALT
 70
0
 62
253
  6
Continuous
370
5
390
13
347
21
  0
LAYER
  5
C9
330
1
100
AcDbSymbolTableRecord
100
AcDbLayerTableRecord
  2
HATCH_SIDEWALK
 70
0
 62
7
  6
Continuous
370
5
390
13
347
21
  0
LAYER
  5
CA
330
1
100
AcDbSymbolTableRecord
100
AcDbLayerTableRecord
  2
HATCH_MEDIAN
 70
0
 62
82
  6
Continuous
370
5
390
13
347
21
  0
LAYER
  5
CB
330
1
100
AcDbSymbolTableRecord
100
AcDbLayerTableRecord
  2
HATCH_BIKE
 70
0
 62
82
  6
Continuous
370
5
390
13
347
21
  0
LAYER
  5
CC
330
1
100
AcDbSymbolTableRecord
100
AcDbLayerTableRecord
  2
HATCH_BRT
 70
0
 62
10
  6
Continuous
370
5
390
13
347
21
  0
ENDTAB
  0
TABLE
  2
STYLE
  5
5
330
0
100
AcDbSymbolTable
 70
31
  0
STYLE
  5
29
330
5
100
AcDbSymbolTableRecord
100
AcDbTextStyleTableRecord
  2
Standard
 70
0
 40
0.0
 41
1.0
 50
0.0
 71
0
 42
2.5
  3
txt
  4

  0
STYLE
  5
41
330
5
100
AcDbSymbolTableRecord
100
AcDbTextStyleTableRecord
  2
OpenSans-Light
 70
0
 40
0.0
 41
1.0
 50
0.0
 71
0
 42
2.5
  3
OpenSans-Light.ttf
  4

  0
STYLE
  5
42
330
5
100
AcDbSymbolTableRecord
100
AcDbTextStyleTableRecord
  2
OpenSans-Light-Italic
 70
0
 40
0.0
 41
1.0
 50
0.0
 71
0
 42
2.5
  3
OpenSans-LightItalic.ttf
  4

  0
STYLE
  5
43
330
5
100
AcDbSymbolTableRecord
100
AcDbTextStyleTableRecord
  2
OpenSans
 70
0
 40
0.0
 41
1.0
 50
0.0
 71
0
 42
2.5
  3
OpenSans-Regular.ttf
  4

  0
STYLE
  5
44
330
5
100
AcDbSymbolTableRecord
100
AcDbTextStyleTableRecord
  2
OpenSans-Italic
 70
0
 40
0.0
 41
1.0
 50
0.0
 71
0
 42
2.5
  3
OpenSans-Italic.ttf
  4

  0
STYLE
  5
45
330
5
100
AcDbSymbolTableRecord
100
AcDbTextStyleTableRecord
  2
OpenSans-SemiBold
 70
0
 40
0.0
 41
1.0
 50
0.0
 71
0
 42
2.5
  3
OpenSans-SemiBold.ttf
  4

  0
STYLE
  5
46
330
5
100
AcDbSymbolTableRecord
100
AcDbTextStyleTableRecord
  2
OpenSans-SemiBoldItalic
 70
0
 40
0.0
 41
1.0
 50
0.0
 71
0
 42
2.5
  3
OpenSans-SemiBoldItalic.ttf
  4

  0
STYLE
  5
47
330
5
100
AcDbSymbolTableRecord
100
AcDbTextStyleTableRecord
  2
OpenSans-Bold
 70
0
 40
0.0
 41
1.0
 50
0.0
 71
0
 42
2.5
  3
OpenSans-Bold.ttf
  4

  0
STYLE
  5
48
330
5
100
AcDbSymbolTableRecord
100
AcDbTextStyleTableRecord
  2
OpenSans-BoldItalic
 70
0
 40
0.0
 41
1.0
 50
0.0
 71
0
 42
2.5
  3
OpenSans-BoldItalic.ttf
  4

  0
STYLE
  5
49
330
5
100
AcDbSymbolTableRecord
100
AcDbTextStyleTableRecord
  2
OpenSans-ExtraBold
 70
0
 40
0.0
 41
1.0
 50
0.0
 71
0
 42
2.5
  3
OpenSans-ExtraBold.ttf
  4

  0
STYLE
  5
4A
330
5
100
AcDbSymbolTableRecord
100
AcDbTextStyleTableRecord
  2
OpenSans-ExtraBoldItalic
 70
0
 40
0.0
 41
1.0
 50
0.0
 71
0
 42
2.5
  3
OpenSans-ExtraBoldItalic.ttf
  4

  0
STYLE
  5
4B
330
5
100
AcDbSymbolTableRecord
100
AcDbTextStyleTableRecord
  2
OpenSansCondensed-Bold
 70
0
 40
0.0
 41
1.0
 50
0.0
 71
0
 42
2.5
  3
OpenSansCondensed-Bold.ttf
  4

  0
STYLE
  5
4C
330
5
100
AcDbSymbolTableRecord
100
AcDbTextStyleTableRecord
  2
OpenSansCondensed-Light
 70
0
 40
0.0
 41
1.0
 50
0.0
 71
0
 42
2.5
  3
OpenSansCondensed-Light.ttf
  4

  0
STYLE
  5
4D
330
5
100
AcDbSymbolTableRecord
100
AcDbTextStyleTableRecord
  2
OpenSansCondensed-Italic
 70
0
 40
0.0
 41
1.0
 50
0.0
 71
0
 42
2.5
  3
OpenSansCondensed-LightItalic.ttf
  4

  0
STYLE
  5
4E
330
5
100
AcDbSymbolTableRecord
100
AcDbTextStyleTableRecord
  2
LiberationSans
 70
0
 40
0.0
 41
1.0
 50
0.0
 71
0
 42
2.5
  3
LiberationSans-Regular.ttf
  4

  0
STYLE
  5
4F
330
5
100
AcDbSymbolTableRecord
100
AcDbTextStyleTableRecord
  2
LiberationSans-Bold
 70
0
 40
0.0
 41
1.0
 50
0.0
 71
0
 42
2.5
  3
LiberationSans-Bold.ttf
  4

  0
STYLE
  5
50
330
5
100
AcDbSymbolTableRecord
100
AcDbTextStyleTableRecord
  2
LiberationSans-BoldItalic
 70
0
 40
0.0
 41
1.0
 50
0.0
 71
0
 42
2.5
  3
LiberationSans-BoldItalic.ttf
  4

  0
STYLE
  5
51
330
5
100
AcDbSymbolTableRecord
100
AcDbTextStyleTableRecord
  2
LiberationSans-Italic
 70
0
 40
0.0
 41
1.0
 50
0.0
 71
0
 42
2.5
  3
LiberationSans-Italic.ttf
  4

  0
STYLE
  5
52
330
5
100
AcDbSymbolTableRecord
100
AcDbTextStyleTableRecord
  2
LiberationSerif
 70
0
 40
0.0
 41
1.0
 50
0.0
 71
0
 42
2.5
  3
LiberationSerif-Regular.ttf
  4

  0
STYLE
  5
53
330
5
100
AcDbSymbolTableRecord
100
AcDbTextStyleTableRecord
  2
LiberationSerif-Bold
 70
0
 40
0.0
 41
1.0
 50
0.0
 71
0
 42
2.5
  3
LiberationSerif-Bold.ttf
  4

  0
STYLE
  5
54
330
5
100
AcDbSymbolTableRecord
100
AcDbTextStyleTableRecord
  2
LiberationSerif-BoldItalic
 70
0
 40
0.0
 41
1.0
 50
0.0
 71
0
 42
2.5
  3
LiberationSerif-BoldItalic.ttf
  4

  0
STYLE
  5
55
330
5
100
AcDbSymbolTableRecord
100
AcDbTextStyleTableRecord
  2
LiberationSerif-Italic
 70
0
 40
0.0
 41
1.0
 50
0.0
 71
0
 42
2.5
  3
LiberationSerif-Italic.ttf
  4

  0
STYLE
  5
56
330
5
100
AcDbSymbolTableRecord
100
AcDbTextStyleTableRecord
  2
LiberationMono
 70
0
 40
0.0
 41
1.0
 50
0.0
 71
0
 42
2.5
  3
LiberationMono-Regular.ttf
  4

  0
STYLE
  5
57
330
5
100
AcDbSymbolTableRecord
100
AcDbTextStyleTableRecord
  2
LiberationMono-Bold
 70
0
 40
0.0
 41
1.0
 50
0.0
 71
0
 42
2.5
  3
LiberationMono-Bold.ttf
  4

  0
STYLE
  5
58
330
5
100
AcDbSymbolTableRecord
100
AcDbTextStyleTableRecord
  2
LiberationMono-BoldItalic
 70
0
 40
0.0
 41
1.0
 50
0.0
 71
0
 42
2.5
  3
LiberationMono-BoldItalic.ttf
  4

  0
STYLE
  5
59
330
5
100
AcDbSymbolTableRecord
100
AcDbTextStyleTableRecord
  2
LiberationMono-Italic
 70
0
 40
0.0
 41
1.0
 50
0.0
 71
0
 42
2.5
  3
LiberationMono-Italic.ttf
  4

  0
STYLE
  5
8A
330
5
100
AcDbSymbolTableRecord
100
AcDbTextStyleTableRecord
  2
TITLE
 70
0
 40
0.0
 41
1.0
 50
0.0
 71
0
 42
2.5
  3
Arial.ttf
  4

  0
STYLE
  5
8B
330
5
100
AcDbSymbolTableRecord
100
AcDbTextStyleTableRecord
  2
SUBTITLE
 70
0
 40
0.0
 41
1.0
 50
0.0
 71
0
 42
2.5
  3
Arial.ttf
  4

  0
STYLE
  5
8C
330
5
100
AcDbSymbolTableRecord
100
AcDbTextStyleTableRecord
  2
LABEL
 70
0
 40
0.0
 41
0.9
 50
0.0
 71
0
 42
2.5
  3
Arial.ttf
  4

  0
STYLE
  5
8D
330
5
100
AcDbSymbolTableRecord
100
AcDbTextStyleTableRecord
  2
NOTE
 70
0
 40
0.0
 41
0.85
 50
0.0
 71
0
 42
2.5
  3
Arial.ttf
  4

  0
STYLE
  5
8E
330
5
100
AcDbSymbolTableRecord
100
AcDbTextStyleTableRecord
  2
DIM
 70
0
 40
0.0
 41
0.9
 50
0.0
 71
0
 42
2.5
  3
Arial.ttf
  4

  0
ENDTAB
  0
TABLE
  2
VIEW
  5
7
330
0
100
AcDbSymbolTable
 70
0
  0
ENDTAB
  0
TABLE
  2
UCS
  5
6
330
0
100
AcDbSymbolTable
 70
0
  0
ENDTAB
  0
TABLE
  2
APPID
  5
3
330
0
100
AcDbSymbolTable
 70
3
  0
APPID
  5
2A
330
3
100
AcDbSymbolTableRecord
100
AcDbRegAppTableRecord
  2
ACAD
 70
0
  0
APPID
  5
14C
330
3
100
AcDbSymbolTableRecord
100
AcDbRegAppTableRecord
  2
HATCHBACKGROUNDCOLOR
 70
0
  0
APPID
  5
14D
330
3
100
AcDbSymbolTableRecord
100
AcDbRegAppTableRecord
  2
EZDXF
 70
0
  0
ENDTAB
  0
TABLE
  2
DIMSTYLE
  5
4
330
0
100
AcDbSymbolTable
 70
13
100
AcDbDimStyleTable
  0
DIMSTYLE
105
2B
330
4
100
AcDbSymbolTableRecord
100
AcDbDimStyleTableRecord
  2
Standard
 70
0
 40
1.0
 41
2.5
 42
0.625
 43
3.75
 44
1.25
 45
0.0
 46
0.0
 47
0.0
 48
0.0
 49
2.5
140
2.5
141
2.5
142
0.0
143
0.03937007874
144
1.0
145
0.0
146
1.0
147
0.625
148
0.0
 69
0
 70
0
 71
0
 72
0
 73
0
 74
0
 75
0
 76
0
 77
1
 78
8
 79
3
170
0
171
3
172
1
173
0
174
0
175
0
176
0
177
0
178
0
179
2
271
2
272
2
273
2
274
3
275
0
276
0
277
2
278
44
279
0
280
0
281
0
282
0
283
0
284
8
285
0
286
0
288
0
289
3
290
0
371
-2
372
-2
  0
DIMSTYLE
105
73
330
4
100
AcDbSymbolTableRecord
100
AcDbDimStyleTableRecord
  2
EZDXF
 70
0
 40
1.0
 41
0.175
 42
0.125
 43
3.75
 44
0.375
 45
0.0
 46
0.0
 47
0.0
 48
0.0
 49
2.5
140
0.25
141
2.5
142
0.0
143
0.03937007874
144
100.0
145
0.0
146
0.5
147
0.1
148
0.0
 69
0
 70
0
 71
0
 72
0
 73
0
 74
0
 75
0
 76
0
 77
1
 78
12
 79
3
170
0
171
3
172
1
173
0
174
0
175
0
176
0
177
0
178
0
179
2
271
2
272
2
273
2
274
3
275
0
276
0
277
2
278
46
279
2
280
0
281
0
282
0
283
0
284
8
285
0
286
0
288
1
289
3
290
0
340
4C
342
74
371
-2
372
-2
  0
DIMSTYLE
105
7C
330
4
100
AcDbSymbolTableRecord
100
AcDbDimStyleTableRecord
  2
EZ_M_100_H25_CM
 70
0
 40
1.0
 41
0.25
 42
0.125
 43
3.75
 44
0.375
 45
0.0
 46
0.0
 47
0.0
 48
0.0
 49
2.5
140
0.25
141
2.5
142
0.125
143
0.03937007874
144
100.0
145
0.0
146
0.5
147
0.1
148
0.0
 69
0
 70
0
 71
0
 72
0
 73
0
 74
0
 75
0
 76
0
 77
1
 78
12
 79
3
170
0
171
3
172
1
173
0
174
0
175
0
176
0
177
0
178
0
179
2
271
2
272
2
273
2
274
3
275
0
276
0
277
2
278
46
279
2
280
0
281
0
282
0
283
0
284
8
285
0
286
0
288
1
289
3
290
0
340
4C
371
-2
372
-2
  0
DIMSTYLE
105
7D
330
4
100
AcDbSymbolTableRecord
100
AcDbDimStyleTableRecord
  2
EZ_M_50_H25_CM
 70
0
 40
1.0
 41
0.125
 42
0.0625
 43
3.75
 44
0.1875
 45
0.0
 46
0.0
 47
0.0
 48
0.0
 49
2.5
140
0.125
141
2.5
142
0.0625
143
0.03937007874
144
100.0
145
0.0
146
0.5
147
0.05
148
0.0
 69
0
 70
0
 71
0
 72
0
 73
0
 74
0
 75
0
 76
0
 77
1
 78
12
 79
3
170
0
171
3
172
1
173
0
174
0
175
0
176
0
177
0
178
0
179
2
271
2
272
2
273
2
274
3
275
0
276
0
277
2
278
46
279
2
280
0
281
0
282
0
283
0
284
8
285
0
286
0
288
1
289
3
290
0
340
4C
371
-2
372
-2
  0
DIMSTYLE
105
7E
330
4
100
AcDbSymbolTableRecord
100
AcDbDimStyleTableRecord
  2
EZ_M_25_H25_CM
 70
0
 40
1.0
 41
0.0625
 42
0.03125
 43
3.75
 44
0.09375
 45
0.0
 46
0.0
 47
0.0
 48
0.0
 49
2.5
140
0.0625
141
2.5
142
0.03125
143
0.03937007874
144
100.0
145
0.0
146
0.5
147
0.025
148
0.0
 69
0
 70
0
 71
0
 72
0
 73
0
 74
0
 75
0
 76
0
 77
1
 78
12
 79
3
170
0
171
3
172
1
173
0
174
0
175
0
176
0
177
0
178
0
179
2
271
2
272
2
273
2
274
3
275
0
276
0
277
2
278
46
279
2
280
0
281
0
282
0
283
0
284
8
285
0
286
0
288
1
289
3
290
0
340
4C
371
-2
372
-2
  0
DIMSTYLE
105
7F
330
4
100
AcDbSymbolTableRecord
100
AcDbDimStyleTableRecord
  2
EZ_M_20_H25_CM
 70
0
 40
1.0
 41
0.05
 42
0.025
 43
3.75
 44
0.07500000000000001
 45
0.0
 46
0.0
 47
0.0
 48
0.0
 49
2.5
140
0.05
141
2.5
142
0.025
143
0.03937007874
144
100.0
145
0.0
146
0.5
147
0.020000000000000004
148
0.0
 69
0
 70
0
 71
0
 72
0
 73
0
 74
0
 75
0
 76
0
 77
1
 78
12
 79
3
170
0
171
3
172
1
173
0
174
0
175
0
176
0
177
0
178
0
179
2
271
2
272
2
273
2
274
3
275
0
276
0
277
2
278
46
279
2
280
0
281
0
282
0
283
0
284
8
285
0
286
0
288
1
289
3
290
0
340
4C
371
-2
372
-2
  0
DIMSTYLE
105
80
330
4
100
AcDbSymbolTableRecord
100
AcDbDimStyleTableRecord
  2
EZ_M_10_H25_CM
 70
0
 40
1.0
 41
0.025
 42
0.0125
 43
3.75
 44
0.037500000000000006
 45
0.0
 46
0.0
 47
0.0
 48
0.0
 49
2.5
140
0.025
141
2.5
142
0.0125
143
0.03937007874
144
100.0
145
0.0
146
0.5
147
0.010000000000000002
148
0.0
 69
0
 70
0
 71
0
 72
0
 73
0
 74
0
 75
0
 76
0
 77
1
 78
12
 79
3
170
0
171
3
172
1
173
0
174
0
175
0
176
0
177
0
178
0
179
2
271
2
272
2
273
2
274
3
275
0
276
0
277
2
278
46
279
2
280
0
281
0
282
0
283
0
284
8
285
0
286
0
288
1
289
3
290
0
340
4C
371
-2
372
-2
  0
DIMSTYLE
105
81
330
4
100
AcDbSymbolTableRecord
100
AcDbDimStyleTableRecord
  2
EZ_M_5_H25_CM
 70
0
 40
1.0
 41
0.0125
 42
0.00625
 43
3.75
 44
0.018750000000000003
 45
0.0
 46
0.0
 47
0.0
 48
0.0
 49
2.5
140
0.0125
141
2.5
142
0.00625
143
0.03937007874
144
100.0
145
0.0
146
0.5
147
0.005000000000000001
148
0.0
 69
0
 70
0
 71
0
 72
0
 73
0
 74
0
 75
0
 76
0
 77
1
 78
12
 79
3
170
0
171
3
172
1
173
0
174
0
175
0
176
0
177
0
178
0
179
2
271
2
272
2
273
2
274
3
275
0
276
0
277
2
278
46
279
2
280
0
281
0
282
0
283
0
284
8
285
0
286
0
288
1
289
3
290
0
340
4C
371
-2
372
-2
  0
DIMSTYLE
105
82
330
4
100
AcDbSymbolTableRecord
100
AcDbDimStyleTableRecord
  2
EZ_M_1_H25_CM
 70
0
 40
1.0
 41
0.0025
 42
0.00125
 43
3.75
 44
0.00375
 45
0.0
 46
0.0
 47
0.0
 48
0.0
 49
2.5
140
0.0025
141
2.5
142
0.00125
143
0.03937007874
144
100.0
145
0.0
146
0.5
147
0.001
148
0.0
 69
0
 70
0
 71
0
 72
0
 73
0
 74
0
 75
0
 76
0
 77
1
 78
12
 79
3
170
0
171
3
172
1
173
0
174
0
175
0
176
0
177
0
178
0
179
2
271
2
272
2
273
2
274
3
275
0
276
0
277
2
278
46
279
2
280
0
281
0
282
0
283
0
284
8
285
0
286
0
288
1
289
3
290
0
340
4C
371
-2
372
-2
  0
DIMSTYLE
105
83
330
4
100
AcDbSymbolTableRecord
100
AcDbDimStyleTableRecord
  2
EZ_RADIUS
 70
0
 40
1.0
 41
0.25
 42
0.125
 43
3.75
 44
0.375
 45
0.0
 46
0.0
 47
0.0
 48
0.0
 49
2.5
140
0.25
141
0.0
142
0.0
143
0.03937007874
144
100.0
145
0.0
146
0.5
147
0.1
148
0.0
 69
0
 70
0
 71
0
 72
0
 73
0
 74
0
 75
0
 76
0
 77
1
 78
12
 79
3
170
0
171
3
172
0
173
0
174
0
175
0
176
0
177
0
178
0
179
2
271
2
272
2
273
2
274
3
275
0
276
0
277
2
278
46
279
1
280
0
281
0
282
0
283
0
284
8
285
0
286
0
288
1
289
3
290
0
340
4C
342
84
371
-2
372
-2
  0
DIMSTYLE
105
88
330
4
100
AcDbSymbolTableRecord
100
AcDbDimStyleTableRecord
  2
EZ_RADIUS_INSIDE
 70
0
 40
1.0
 41
0.25
 42
0.125
 43
3.75
 44
0.375
 45
0.0
 46
0.0
 47
0.0
 48
0.0
 49
2.5
140
0.25
141
0.0
142
0.0
143
0.03937007874
144
100.0
145
0.0
146
0.5
147
0.1
148
0.0
 69
0
 70
0
 71
0
 72
0
 73
0
 74
0
 75
0
 76
0
 77
0
 78
12
 79
3
170
0
171
3
172
0
173
0
174
1
175
0
176
0
177
0
178
0
179
2
271
2
272
2
273
2
274
3
275
0
276
0
277
2
278
46
279
0
280
0
281
0
282
0
283
0
284
8
285
0
286
0
288
1
289
0
290
0
340
4C
342
84
371
-2
372
-2
  0
DIMSTYLE
105
89
330
4
100
AcDbSymbolTableRecord
100
AcDbDimStyleTableRecord
  2
EZ_CURVED
 70
0
 40
1.0
 41
0.25
 42
0.125
 43
3.75
 44
0.375
 45
0.0
 46
0.0
 47
0.0
 48
0.0
 49
2.5
140
0.25
141
2.5
142
0.0
143
0.03937007874
144
100.0
145
0.0
146
0.5
147
0.1
148
0.0
 69
0
 70
0
 71
0
 72
0
 73
0
 74
0
 75
0
 76
0
 77
1
 78
12
 79
2
 90
2
170
0
171
3
172
1
173
0
174
0
175
0
176
0
177
0
178
0
179
2
271
2
272
2
273
2
274
3
275
0
276
0
277
2
278
46
279
2
280
0
281
0
282
0
283
0
284
8
285
0
286
0
288
1
289
3
290
0
340
4C
371
-2
372
-2
  0
DIMSTYLE
105
8F
330
4
100
AcDbSymbolTableRecord
100
AcDbDimStyleTableRecord
  2
ARCH
 70
0
 40
1.0
 41
2.5
 42
1.0
 43
3.75
 44
1.5
 45
0.0
 46
0.0
 47
0.0
 48
0.0
 49
2.5
140
3.0
141
2.5
142
0.0
143
0.03937007874
144
1.0
145
0.0
146
1.0
147
1.0
148
0.0
 69
0
 70
0
 71
0
 72
0
 73
0
 74
0
 75
0
 76
0
 77
1
 78
8
 79
3
170
0
171
3
172
1
173
0
174
0
175
0
176
0
177
0
178
0
179
2
271
0
272
2
273
2
274
3
275
0
276
0
277
2
278
44
279
0
280
0
281
0
282
0
283
0
284
8
285
0
286
0
288
0
289
3
290
0
340
8E
371
-2
372
-2
  0
ENDTAB
  0
TABLE
  2
BLOCK_RECORD
  5
9
330
0
100
AcDbSymbolTable
 70
16
  0
BLOCK_RECORD
  5
17
330
9
100
AcDbSymbolTableRecord
100
AcDbBlockTableRecord
  2
*Model_Space
340
1A
 70
0
280
1
281
0
  0
BLOCK_RECORD
  5
1B
330
9
100
AcDbSymbolTableRecord
100
AcDbBlockTableRecord
  2
*Paper_Space
340
1E
 70
0
280
1
281
0
  0
BLOCK_RECORD
  5
74
330
9
100
AcDbSymbolTableRecord
100
AcDbBlockTableRecord
  2
_ARCHTICK
340
0
 70
0
280
1
281
0
  0
BLOCK_RECORD
  5
78
330
9
100
AcDbSymbolTableRecord
100
AcDbBlockTableRecord
  2
_CLOSEDFILLED
340
0
 70
0
280
1
281
0
  0
BLOCK_RECORD
  5
84
330
9
100
AcDbSymbolTableRecord
100
AcDbBlockTableRecord
  2
_CLOSEDBLANK
340
0
 70
0
280
1
281
0
  0
BLOCK_RECORD
  5
CD
330
9
100
AcDbSymbolTableRecord
100
AcDbBlockTableRecord
  2
TREE_PLAN
340
0
 70
0
280
1
281
0
  0
BLOCK_RECORD
  5
D6
330
9
100
AcDbSymbolTableRecord
100
AcDbBlockTableRecord
  2
TREE_SMALL
340
0
 70
0
280
1
281
0
  0
BLOCK_RECORD
  5
DB
330
9
100
AcDbSymbolTableRecord
100
AcDbBlockTableRecord
  2
TREE_SECTION
340
0
 70
0
280
1
281
0
  0
BLOCK_RECORD
  5
E0
330
9
100
AcDbSymbolTableRecord
100
AcDbBlockTableRecord
  2
NORTH_ARROW
340
0
 70
0
280
1
281
0
  0
BLOCK_RECORD
  5
E6
330
9
100
AcDbSymbolTableRecord
100
AcDbBlockTableRecord
  2
SCALE_BAR_1000
340
0
 70
0
280
1
281
0
  0
BLOCK_RECORD
  5
F2
330
9
100
AcDbSymbolTableRecord
100
AcDbBlockTableRecord
  2
BRT_STATION
340
0
 70
0
280
1
281
0
  0
BLOCK_RECORD
  5
F8
330
9
100
AcDbSymbolTableRecord
100
AcDbBlockTableRecord
  2
ROUNDABOUT
340
0
 70
0
280
1
281
0
  0
BLOCK_RECORD
  5
FE
330
9
100
AcDbSymbolTableRecord
100
AcDbBlockTableRecord
  2
CAR_PLAN
340
0
 70
0
280
1
281
0
  0
BLOCK_RECORD
  5
104
330
9
100
AcDbSymbolTableRecord
100
AcDbBlockTableRecord
  2
PERSON_SECTION
340
0
 70
0
280
1
281
0
  0
BLOCK_RECORD
  5
10D
330
9
100
AcDbSymbolTableRecord
100
AcDbBlockTableRecord
  2
BLDG_RECT
340
0
 70
0
280
1
281
0
  0
BLOCK_RECORD
  5
112
330
9
100
AcDbSymbolTableRecord
100
AcDbBlockTableRecord
  2
MOSQUE
340
0
 70
0
280
1
281
0
  0
ENDTAB
  0
ENDSEC
  0
SECTION
  2
BLOCKS
  0
BLOCK
  5
18
330
17
100
AcDbEntity
  8
0
100
AcDbBlockBegin
  2
*Model_Space
 70
0
 10
0.0
 20
0.0
 30
0.0
  3
*Model_Space
  1

  0
ENDBLK
  5
19
330
17
100
AcDbEntity
  8
0
100
AcDbBlockEnd
  0
BLOCK
  5
1C
330
1B
100
AcDbEntity
  8
0
100
AcDbBlockBegin
  2
*Paper_Space
 70
0
 10
0.0
 20
0.0
 30
0.0
  3
*Paper_Space
  1

  0
ENDBLK
  5
1D
330
1B
100
AcDbEntity
  8
0
100
AcDbBlockEnd
  0
BLOCK
  5
75
330
74
100
AcDbEntity
  8
0
100
AcDbBlockBegin
  2
_ARCHTICK
 70
0
 10
0.0
 20
0.0
 30
0.0
  3
_ARCHTICK
  1

  0
LWPOLYLINE
  5
77
330
74
100
AcDbEntity
  8
0
  6
BYBLOCK
 62
0
100
AcDbPolyline
 90
2
 70
0
 43
0.15
 10
-0.5
 20
-0.5
 10
0.5
 20
0.5
  0
ENDBLK
  5
76
330
74
100
AcDbEntity
  8
0
100
AcDbBlockEnd
  0
BLOCK
  5
79
330
78
100
AcDbEntity
  8
0
100
AcDbBlockBegin
  2
_CLOSEDFILLED
 70
0
 10
0.0
 20
0.0
 30
0.0
  3
_CLOSEDFILLED
  1

  0
SOLID
  5
7B
330
78
100
AcDbEntity
  8
0
  6
BYBLOCK
 62
0
100
AcDbTrace
 10
-1.0
 20
0.16439898372402537
 30
0.0
 11
0.0
 21
0.0
 31
0.0
 12
-1.0
 22
-0.16439898372402537
 32
0.0
 13
-1.0
 23
-0.16439898372402537
 33
0.0
  0
ENDBLK
  5
7A
330
78
100
AcDbEntity
  8
0
100
AcDbBlockEnd
  0
BLOCK
  5
85
330
84
100
AcDbEntity
  8
0
100
AcDbBlockBegin
  2
_CLOSEDBLANK
 70
0
 10
0.0
 20
0.0
 30
0.0
  3
_CLOSEDBLANK
  1

  0
LWPOLYLINE
  5
87
330
84
100
AcDbEntity
  8
0
  6
BYBLOCK
 62
0
100
AcDbPolyline
 90
3
 70
1
 10
-1.0
 20
0.16439898372402537
 10
0.0
 20
0.0
 10
-1.0
 20
-0.16439898372402537
  0
ENDBLK
  5
86
330
84
100
AcDbEntity
  8
0
100
AcDbBlockEnd
  0
BLOCK
  5
CE
330
CD
100
AcDbEntity
  8
0
100
AcDbBlockBegin
  2
TREE_PLAN
 70
0
 10
0.0
 20
0.0
 30
0.0
  3
TREE_PLAN
  1

  0
CIRCLE
  5
D0
330
CD
100
AcDbEntity
  8
0
 62
82
370
18
100
AcDbCircle
 10
0.0
 20
0.0
 30
0.0
 40
3.0
  0
CIRCLE
  5
D1
330
CD
100
AcDbEntity
  8
0
 62
94
370
13
100
AcDbCircle
 10
0.0
 20
0.0
 30
0.0
 40
0.5
  0
LINE
  5
D2
330
CD
100
AcDbEntity
  8
0
 62
82
370
5
100
AcDbLine
 10
-2.2
 20
-0.0
 30
0.0
 11
2.2
 21
0.0
 31
0.0
  0
LINE
  5
D3
330
CD
100
AcDbEntity
  8
0
 62
82
370
5
100
AcDbLine
 10
-1.5556349186104048
 20
-1.5556349186104046
 30
0.0
 11
1.5556349186104048
 21
1.5556349186104046
 31
0.0
  0
LINE
  5
D4
330
CD
100
AcDbEntity
  8
0
 62
82
370
5
100
AcDbLine
 10
-1.3471114790620887e-16
 20
-2.2
 30
0.0
 11
1.3471114790620887e-16
 21
2.2
 31
0.0
  0
LINE
  5
D5
330
CD
100
AcDbEntity
  8
0
 62
82
370
5
100
AcDbLine
 10
1.5556349186104046
 20
-1.5556349186104048
 30
0.0
 11
-1.5556349186104046
 21
1.5556349186104048
 31
0.0
  0
ENDBLK
  5
CF
330
CD
100
AcDbEntity
  8
0
100
AcDbBlockEnd
  0
BLOCK
  5
D7
330
D6
100
AcDbEntity
  8
0
100
AcDbBlockBegin
  2
TREE_SMALL
 70
0
 10
0.0
 20
0.0
 30
0.0
  3
TREE_SMALL
  1

  0
CIRCLE
  5
D9
330
D6
100
AcDbEntity
  8
0
 62
82
370
13
100
AcDbCircle
 10
0.0
 20
0.0
 30
0.0
 40
1.5
  0
CIRCLE
  5
DA
330
D6
100
AcDbEntity
  8
0
 62
94
370
9
100
AcDbCircle
 10
0.0
 20
0.0
 30
0.0
 40
0.3
  0
ENDBLK
  5
D8
330
D6
100
AcDbEntity
  8
0
100
AcDbBlockEnd
  0
BLOCK
  5
DC
330
DB
100
AcDbEntity
  8
0
100
AcDbBlockBegin
  2
TREE_SECTION
 70
0
 10
0.0
 20
0.0
 30
0.0
  3
TREE_SECTION
  1

  0
LWPOLYLINE
  5
DE
330
DB
100
AcDbEntity
  8
0
 62
46
370
18
100
AcDbPolyline
 90
4
 70
1
 10
-0.3
 20
0.0
 10
-0.3
 20
3.0
 10
0.3
 20
3.0
 10
0.3
 20
0.0
  0
LWPOLYLINE
  5
DF
330
DB
100
AcDbEntity
  8
0
 62
82
370
18
100
AcDbPolyline
 90
4
 70
1
 10
-2.5
 20
3.0
 42
0.5
 10
0.0
 20
7.0
 42
0.5
 10
2.5
 20
3.0
 42
0.5
 10
0.0
 20
3.5
 42
-0.3
  0
ENDBLK
  5
DD
330
DB
100
AcDbEntity
  8
0
100
AcDbBlockEnd
  0
BLOCK
  5
E1
330
E0
100
AcDbEntity
  8
0
100
AcDbBlockBegin
  2
NORTH_ARROW
 70
0
 10
0.0
 20
0.0
 30
0.0
  3
NORTH_ARROW
  1

  0
LWPOLYLINE
  5
E3
330
E0
100
AcDbEntity
  8
0
 62
7
370
35
100
AcDbPolyline
 90
4
 70
1
 10
0.0
 20
0.0
 10
-4.0
 20
-12.0
 10
0.0
 20
-8.0
 10
4.0
 20
-12.0
  0
HATCH
  5
E4
330
E0
100
AcDbEntity
  8
0
 62
7
100
AcDbHatch
 10
0.0
 20
0.0
 30
0.0
210
0.0
220
0.0
230
1.0
  2
SOLID
 70
1
 71
0
 91
1
 92
3
 72
0
 73
1
 93
3
 10
0.0
 20
0.0
 10
4.0
 20
-12.0
 10
0.0
 20
-8.0
 97
0
 75
0
 76
1
 98
0
  0
TEXT
  5
E5
330
E0
100
AcDbEntity
  8
0
 62
7
100
AcDbText
 10
-2.5
 20
2.0
 30
0.0
 40
5.0
  1
N
  7
TITLE
 11
-2.5
 21
2.0
 31
0.0
100
AcDbText
 73
1
  0
ENDBLK
  5
E2
330
E0
100
AcDbEntity
  8
0
100
AcDbBlockEnd
  0
BLOCK
  5
E7
330
E6
100
AcDbEntity
  8
0
100
AcDbBlockBegin
  2
SCALE_BAR_1000
 70
0
 10
0.0
 20
0.0
 30
0.0
  3
SCALE_BAR_1000
  1

  0
HATCH
  5
E9
330
E6
100
AcDbEntity
  8
0
 62
7
100
AcDbHatch
 10
0.0
 20
0.0
 30
0.0
210
0.0
220
0.0
230
1.0
  2
SOLID
 70
1
 71
0
 91
1
 92
3
 72
0
 73
1
 93
4
 10
0.0
 20
0.0
 10
50.0
 20
0.0
 10
50.0
 20
4.0
 10
0.0
 20
4.0
 97
0
 75
0
 76
1
 98
0
  0
LWPOLYLINE
  5
EA
330
E6
100
AcDbEntity
  8
0
 62
7
370
18
100
AcDbPolyline
 90
4
 70
1
 10
0.0
 20
0.0
 10
50.0
 20
0.0
 10
50.0
 20
4.0
 10
0.0
 20
4.0
  0
LWPOLYLINE
  5
EB
330
E6
100
AcDbEntity
  8
0
 62
7
370
18
100
AcDbPolyline
 90
4
 70
1
 10
50.0
 20
0.0
 10
100.0
 20
0.0
 10
100.0
 20
4.0
 10
50.0
 20
4.0
  0
HATCH
  5
EC
330
E6
100
AcDbEntity
  8
0
 62
7
100
AcDbHatch
 10
0.0
 20
0.0
 30
0.0
210
0.0
220
0.0
230
1.0
  2
SOLID
 70
1
 71
0
 91
1
 92
3
 72
0
 73
1
 93
4
 10
100.0
 20
0.0
 10
150.0
 20
0.0
 10
150.0
 20
4.0
 10
100.0
 20
4.0
 97
0
 75
0
 76
1
 98
0
  0
LWPOLYLINE
  5
ED
330
E6
100
AcDbEntity
  8
0
 62
7
370
18
100
AcDbPolyline
 90
4
 70
1
 10
100.0
 20
0.0
 10
150.0
 20
0.0
 10
150.0
 20
4.0
 10
100.0
 20
4.0
  0
LWPOLYLINE
  5
EE
330
E6
100
AcDbEntity
  8
0
 62
7
370
18
100
AcDbPolyline
 90
4
 70
1
 10
150.0
 20
0.0
 10
200.0
 20
0.0
 10
200.0
 20
4.0
 10
150.0
 20
4.0
  0
TEXT
  5
EF
330
E6
100
AcDbEntity
  8
0
 62
7
100
AcDbText
 10
0.0
 20
-4.0
 30
0.0
 40
3.0
  1
0
  7
LABEL
 72
1
 11
0.0
 21
-4.0
 31
0.0
100
AcDbText
 73
2
  0
TEXT
  5
F0
330
E6
100
AcDbEntity
  8
0
 62
7
100
AcDbText
 10
100.0
 20
-4.0
 30
0.0
 40
3.0
  1
100m
  7
LABEL
 72
1
 11
100.0
 21
-4.0
 31
0.0
100
AcDbText
 73
2
  0
TEXT
  5
F1
330
E6
100
AcDbEntity
  8
0
 62
7
100
AcDbText
 10
200.0
 20
-4.0
 30
0.0
 40
3.0
  1
200m
  7
LABEL
 72
1
 11
200.0
 21
-4.0
 31
0.0
100
AcDbText
 73
2
  0
ENDBLK
  5
E8
330
E6
100
AcDbEntity
  8
0
100
AcDbBlockEnd
  0
BLOCK
  5
F3
330
F2
100
AcDbEntity
  8
0
100
AcDbBlockBegin
  2
BRT_STATION
 70
0
 10
0.0
 20
0.0
 30
0.0
  3
BRT_STATION
  1

  0
LWPOLYLINE
  5
F5
330
F2
100
AcDbEntity
  8
0
 62
1
370
35
100
AcDbPolyline
 90
4
 70
1
 10
-8.0
 20
-4.0
 10
8.0
 20
-4.0
 10
8.0
 20
4.0
 10
-8.0
 20
4.0
  0
LINE
  5
F6
330
F2
100
AcDbEntity
  8
0
 62
1
370
18
100
AcDbLine
 10
-8.0
 20
0.0
 30
0.0
 11
8.0
 21
0.0
 31
0.0
  0
TEXT
  5
F7
330
F2
100
AcDbEntity
  8
0
 62
1
100
AcDbText
 10
0.0
 20
-1.5
 30
0.0
 40
3.0
  1
BRT
  7
LABEL
 72
1
 11
0.0
 21
-1.5
 31
0.0
100
AcDbText
 73
2
  0
ENDBLK
  5
F4
330
F2
100
AcDbEntity
  8
0
100
AcDbBlockEnd
  0
BLOCK
  5
F9
330
F8
100
AcDbEntity
  8
0
100
AcDbBlockBegin
  2
ROUNDABOUT
 70
0
 10
0.0
 20
0.0
 30
0.0
  3
ROUNDABOUT
  1

  0
CIRCLE
  5
FB
330
F8
100
AcDbEntity
  8
0
 62
7
370
35
100
AcDbCircle
 10
0.0
 20
0.0
 30
0.0
 40
15.0
  0
CIRCLE
  5
FC
330
F8
100
AcDbEntity
  8
0
 62
3
370
25
100
AcDbCircle
 10
0.0
 20
0.0
 30
0.0
 40
8.0
  0
HATCH
  5
FD
330
F8
100
AcDbEntity
  8
0
 62
82
100
AcDbHatch
 10
0.0
 20
0.0
 30
0.0
210
0.0
220
0.0
230
1.0
  2
SOLID
 70
1
 71
0
 91
1
 92
1
 93
1
 72
2
 10
0.0
 20
0.0
 40
8.0
 50
0.0
 51
360.0
 73
1
 97
0
 75
0
 76
1
 98
0
  0
ENDBLK
  5
FA
330
F8
100
AcDbEntity
  8
0
100
AcDbBlockEnd
  0
BLOCK
  5
FF
330
FE
100
AcDbEntity
  8
0
100
AcDbBlockBegin
  2
CAR_PLAN
 70
0
 10
0.0
 20
0.0
 30
0.0
  3
CAR_PLAN
  1

  0
LWPOLYLINE
  5
101
330
FE
100
AcDbEntity
  8
0
 62
8
370
13
100
AcDbPolyline
 90
4
 70
1
 10
0.0
 20
0.0
 10
2.5
 20
0.0
 10
2.5
 20
5.0
 10
0.0
 20
5.0
  0
LWPOLYLINE
  5
102
330
FE
100
AcDbEntity
  8
0
 62
8
370
9
100
AcDbPolyline
 90
4
 70
1
 10
0.3
 20
0.5
 10
2.2
 20
0.5
 10
2.2
 20
1.5
 10
0.3
 20
1.5
  0
LWPOLYLINE
  5
103
330
FE
100
AcDbEntity
  8
0
 62
8
370
9
100
AcDbPolyline
 90
4
 70
1
 10
0.3
 20
3.5
 10
2.2
 20
3.5
 10
2.2
 20
4.5
 10
0.3
 20
4.5
  0
ENDBLK
  5
100
330
FE
100
AcDbEntity
  8
0
100
AcDbBlockEnd
  0
BLOCK
  5
105
330
104
100
AcDbEntity
  8
0
100
AcDbBlockBegin
  2
PERSON_SECTION
 70
0
 10
0.0
 20
0.0
 30
0.0
  3
PERSON_SECTION
  1

  0
CIRCLE
  5
107
330
104
100
AcDbEntity
  8
0
 62
7
370
18
100
AcDbCircle
 10
0.0
 20
1.6
 30
0.0
 40
0.2
  0
LINE
  5
108
330
104
100
AcDbEntity
  8
0
 62
7
370
18
100
AcDbLine
 10
0.0
 20
1.4
 30
0.0
 11
0.0
 21
0.7
 31
0.0
  0
LINE
  5
109
330
104
100
AcDbEntity
  8
0
 62
7
370
18
100
AcDbLine
 10
0.0
 20
0.7
 30
0.0
 11
-0.3
 21
0.0
 31
0.0
  0
LINE
  5
10A
330
104
100
AcDbEntity
  8
0
 62
7
370
18
100
AcDbLine
 10
0.0
 20
0.7
 30
0.0
 11
0.3
 21
0.0
 31
0.0
  0
LINE
  5
10B
330
104
100
AcDbEntity
  8
0
 62
7
370
13
100
AcDbLine
 10
0.0
 20
1.2
 30
0.0
 11
-0.25
 21
0.9
 31
0.0
  0
LINE
  5
10C
330
104
100
AcDbEntity
  8
0
 62
7
370
13
100
AcDbLine
 10
0.0
 20
1.2
 30
0.0
 11
0.25
 21
0.9
 31
0.0
  0
ENDBLK
  5
106
330
104
100
AcDbEntity
  8
0
100
AcDbBlockEnd
  0
BLOCK
  5
10E
330
10D
100
AcDbEntity
  8
0
100
AcDbBlockBegin
  2
BLDG_RECT
 70
2
 10
0.0
 20
0.0
 30
0.0
  3
BLDG_RECT
  1

  0
LWPOLYLINE
  5
110
330
10D
100
AcDbEntity
  8
0
 62
7
370
35
100
AcDbPolyline
 90
4
 70
1
 10
0.0
 20
0.0
 10
1.0
 20
0.0
 10
1.0
 20
1.0
 10
0.0
 20
1.0
  0
ATTDEF
  5
111
330
10D
100
AcDbEntity
  8
0
 62
7
100
AcDbText
 10
0.1
 20
-0.15
 30
0.0
 40
0.12
  1

100
AcDbAttributeDefinition
  3

  2
TYPE
 70
0
  0
ENDBLK
  5
10F
330
10D
100
AcDbEntity
  8
0
100
AcDbBlockEnd
  0
BLOCK
  5
113
330
112
100
AcDbEntity
  8
0
100
AcDbBlockBegin
  2
MOSQUE
 70
0
 10
0.0
 20
0.0
 30
0.0
  3
MOSQUE
  1

  0
CIRCLE
  5
115
330
112
100
AcDbEntity
  8
0
 62
170
370
35
100
AcDbCircle
 10
0.0
 20
0.0
 30
0.0
 40
5.0
  0
ARC
  5
116
330
112
100
AcDbEntity
  8
0
 62
170
370
25
100
AcDbCircle
 10
0.0
 20
2.0
 30
0.0
 40
2.0
100
AcDbArc
 50
30.0
 51
330.0
  0
CIRCLE
  5
117
330
112
100
AcDbEntity
  8
0
 62
170
370
18
100
AcDbCircle
 10
1.0
 20
3.5
 30
0.0
 40
0.5
  0
ENDBLK
  5
114
330
112
100
AcDbEntity
  8
0
100
AcDbBlockEnd
  0
ENDSEC
  0
SECTION
  2
ENTITIES
  0
LWPOLYLINE
  5
118
330
17
100
AcDbEntity
  8
BORDER
100
AcDbPolyline
 90
4
 70
1
 10
-50.0
 20
-100.0
 10
2150.0
 20
-100.0
 10
2150.0
 20
1550.0
 10
-50.0
 20
1550.0
  0
LWPOLYLINE
  5
119
330
17
100
AcDbEntity
  8
TITLEBLOCK
100
AcDbPolyline
 90
4
 70
1
 10
1650.0
 20
-100.0
 10
2150.0
 20
-100.0
 10
2150.0
 20
50.0
 10
1650.0
 20
50.0
  0
LINE
  5
11A
330
17
100
AcDbEntity
  8
TITLEBLOCK
100
AcDbLine
 10
1650.0
 20
-50.0
 30
0.0
 11
2150.0
 21
-50.0
 31
0.0
  0
LINE
  5
11B
330
17
100
AcDbEntity
  8
TITLEBLOCK
100
AcDbLine
 10
1650.0
 20
0.0
 30
0.0
 11
2150.0
 21
0.0
 31
0.0
  0
LINE
  5
11C
330
17
100
AcDbEntity
  8
TITLEBLOCK
100
AcDbLine
 10
1900.0
 20
-100.0
 30
0.0
 11
1900.0
 21
-50.0
 31
0.0
  0
TEXT
  5
11D
330
17
100
AcDbEntity
  8
TEXT_TITLE
100
AcDbText
 10
1900.0
 20
25.0
 30
0.0
 40
12.0
  1
AL-TAL NEW CITY
  7
TITLE
 72
1
 11
1900.0
 21
25.0
 31
0.0
100
AcDbText
 73
2
  0
TEXT
  5
11E
330
17
100
AcDbEntity
  8
TEXT_TITLE
100
AcDbText
 10
1900.0
 20
8.0
 30
0.0
 40
6.0
  1
Mandatory Distribution Zone Replanning Competition
  7
SUBTITLE
 72
1
 11
1900.0
 21
8.0
 31
0.0
100
AcDbText
 73
2
  0
TEXT
  5
11F
330
17
100
AcDbEntity
  8
TEXT_TITLE
100
AcDbText
 10
1900.0
 20
-20.0
 30
0.0
 40
10.0
  1
BUILDING HEIGHTS PLAN
  7
TITLE
 72
1
 11
1900.0
 21
-20.0
 31
0.0
100
AcDbText
 73
2
  0
TEXT
  5
120
330
17
100
AcDbEntity
  8
TEXT_NOTE
100
AcDbText
 10
1900.0
 20
-35.0
 30
0.0
 40
5.0
  1
Height Zone Distribution
  7
NOTE
 72
1
 11
1900.0
 21
-35.0
 31
0.0
100
AcDbText
 73
2
  0
TEXT
  5
121
330
17
100
AcDbEntity
  8
TEXT_LABEL
100
AcDbText
 10
1775.0
 20
-70.0
 30
0.0
 40
5.0
  1
Scale: 1:2000
  7
LABEL
 72
1
 11
1775.0
 21
-70.0
 31
0.0
100
AcDbText
 73
2
  0
TEXT
  5
122
330
17
100
AcDbEntity
  8
TEXT_NOTE
100
AcDbText
 10
1775.0
 20
-85.0
 30
0.0
 40
4.0
  1
Date: March 2026
  7
NOTE
 72
1
 11
1775.0
 21
-85.0
 31
0.0
100
AcDbText
 73
2
  0
TEXT
  5
123
330
17
100
AcDbEntity
  8
TEXT_LABEL
100
AcDbText
 10
2025.0
 20
-70.0
 30
0.0
 40
5.0
  1
Sheet: 3/6
  7
LABEL
 72
1
 11
2025.0
 21
-70.0
 31
0.0
100
AcDbText
 73
2
  0
TEXT
  5
124
330
17
100
AcDbEntity
  8
TEXT_NOTE
100
AcDbText
 10
2025.0
 20
-85.0
 30
0.0
 40
4.0
  1
Dwg: BH-001
  7
NOTE
 72
1
 11
2025.0
 21
-85.0
 31
0.0
100
AcDbText
 73
2
  0
TEXT
  5
125
330
17
100
AcDbEntity
  8
TEXT_NOTE
100
AcDbText
 10
1900.0
 20
-97.0
 30
0.0
 40
4.0
  1
Syrian Arab Republic - Rif Dimashq - Al-Tal
  7
NOTE
 72
1
 11
1900.0
 21
-97.0
 31
0.0
100
AcDbText
 73
2
  0
LWPOLYLINE
  5
126
330
17
100
AcDbEntity
  8
SITE_BOUNDARY
100
AcDbPolyline
 90
18
 70
1
 10
200.0
 20
1900.0
 10
600.0
 20
2000.0
 10
1000.0
 20
2050.0
 10
1400.0
 20
2020.0
 10
1800.0
 20
2000.0
 10
2100.0
 20
1700.0
 10
2200.0
 20
1300.0
 10
2200.0
 20
900.0
 10
2100.0
 20
600.0
 10
1900.0
 20
350.0
 10
1600.0
 20
200.0
 10
1200.0
 20
100.0
 10
800.0
 20
150.0
 10
500.0
 20
300.0
 10
300.0
 20
550.0
 10
200.0
 20
850.0
 10
150.0
 20
1200.0
 10
150.0
 20
1600.0
  0
LWPOLYLINE
  5
127
330
17
100
AcDbEntity
  8
HEIGHT_2FL
100
AcDbPolyline
 90
4
 70
1
 10
200.0
 20
1900.0
 10
600.0
 20
2000.0
 10
600.0
 20
1600.0
 10
250.0
 20
1500.0
  0
HATCH
  5
128
330
17
100
AcDbEntity
  8
HATCH_H2
 62
7
100
AcDbHatch
 10
0.0
 20
0.0
 30
0.0
210
0.0
220
0.0
230
1.0
  2
ANSI31
 70
0
 71
0
 91
1
 92
3
 72
0
 73
1
 93
4
 10
200.0
 20
1900.0
 10
600.0
 20
2000.0
 10
600.0
 20
1600.0
 10
250.0
 20
1500.0
 97
0
 75
1
 76
1
 52
0.0
 41
20.0
 77
0
 78
1
 53
45.0
 43
0.0
 44
0.0
 45
-44.901280606
 46
44.901280606
 79
0
 98
0
  0
LWPOLYLINE
  5
129
330
17
100
AcDbEntity
  8
HEIGHT_2FL
100
AcDbPolyline
 90
4
 70
1
 10
150.0
 20
1200.0
 10
250.0
 20
1500.0
 10
400.0
 20
1100.0
 10
200.0
 20
850.0
  0
HATCH
  5
12A
330
17
100
AcDbEntity
  8
HATCH_H2
 62
7
100
AcDbHatch
 10
0.0
 20
0.0
 30
0.0
210
0.0
220
0.0
230
1.0
  2
ANSI31
 70
0
 71
0
 91
1
 92
3
 72
0
 73
1
 93
4
 10
150.0
 20
1200.0
 10
250.0
 20
1500.0
 10
400.0
 20
1100.0
 10
200.0
 20
850.0
 97
0
 75
1
 76
1
 52
0.0
 41
20.0
 77
0
 78
1
 53
45.0
 43
0.0
 44
0.0
 45
-44.901280606
 46
44.901280606
 79
0
 98
0
  0
LWPOLYLINE
  5
12B
330
17
100
AcDbEntity
  8
HEIGHT_2FL
100
AcDbPolyline
 90
4
 70
1
 10
1600.0
 20
2000.0
 10
1800.0
 20
2000.0
 10
2100.0
 20
1700.0
 10
1900.0
 20
1500.0
  0
HATCH
  5
12C
330
17
100
AcDbEntity
  8
HATCH_H2
 62
7
100
AcDbHatch
 10
0.0
 20
0.0
 30
0.0
210
0.0
220
0.0
230
1.0
  2
ANSI31
 70
0
 71
0
 91
1
 92
3
 72
0
 73
1
 93
4
 10
1600.0
 20
2000.0
 10
1800.0
 20
2000.0
 10
2100.0
 20
1700.0
 10
1900.0
 20
1500.0
 97
0
 75
1
 76
1
 52
0.0
 41
20.0
 77
0
 78
1
 53
45.0
 43
0.0
 44
0.0
 45
-44.901280606
 46
44.901280606
 79
0
 98
0
  0
LWPOLYLINE
  5
12D
330
17
100
AcDbEntity
  8
HEIGHT_2FL
100
AcDbPolyline
 90
4
 70
1
 10
1600.0
 20
200.0
 10
1900.0
 20
350.0
 10
1800.0
 20
550.0
 10
1400.0
 20
350.0
  0
HATCH
  5
12E
330
17
100
AcDbEntity
  8
HATCH_H2
 62
7
100
AcDbHatch
 10
0.0
 20
0.0
 30
0.0
210
0.0
220
0.0
230
1.0
  2
ANSI31
 70
0
 71
0
 91
1
 92
3
 72
0
 73
1
 93
4
 10
1600.0
 20
200.0
 10
1900.0
 20
350.0
 10
1800.0
 20
550.0
 10
1400.0
 20
350.0
 97
0
 75
1
 76
1
 52
0.0
 41
20.0
 77
0
 78
1
 53
45.0
 43
0.0
 44
0.0
 45
-44.901280606
 46
44.901280606
 79
0
 98
0
  0
LWPOLYLINE
  5
12F
330
17
100
AcDbEntity
  8
HEIGHT_2FL
100
AcDbPolyline
 90
4
 70
1
 10
300.0
 20
550.0
 10
500.0
 20
300.0
 10
700.0
 20
250.0
 10
600.0
 20
500.0
  0
HATCH
  5
130
330
17
100
AcDbEntity
  8
HATCH_H2
 62
7
100
AcDbHatch
 10
0.0
 20
0.0
 30
0.0
210
0.0
220
0.0
230
1.0
  2
ANSI31
 70
0
 71
0
 91
1
 92
3
 72
0
 73
1
 93
4
 10
300.0
 20
550.0
 10
500.0
 20
300.0
 10
700.0
 20
250.0
 10
600.0
 20
500.0
 97
0
 75
1
 76
1
 52
0.0
 41
20.0
 77
0
 78
1
 53
45.0
 43
0.0
 44
0.0
 45
-44.901280606
 46
44.901280606
 79
0
 98
0
  0
LWPOLYLINE
  5
131
330
17
100
AcDbEntity
  8
HEIGHT_46FL
100
AcDbPolyline
 90
4
 70
1
 10
600.0
 20
1600.0
 10
1200.0
 20
1700.0
 10
1200.0
 20
1500.0
 10
700.0
 20
1400.0
  0
HATCH
  5
132
330
17
100
AcDbEntity
  8
HATCH_H46
 62
7
100
AcDbHatch
 10
0.0
 20
0.0
 30
0.0
210
0.0
220
0.0
230
1.0
  2
ANSI33
 70
0
 71
0
 91
1
 92
3
 72
0
 73
1
 93
4
 10
600.0
 20
1600.0
 10
1200.0
 20
1700.0
 10
1200.0
 20
1500.0
 10
700.0
 20
1400.0
 97
0
 75
1
 76
1
 52
0.0
 41
15.0
 77
0
 78
2
 53
45.0
 43
0.0
 44
0.0
 45
-67.3519209075
 46
67.3519209075
 79
0
 53
45.0
 43
67.351920795
 44
0.0
 45
-67.3519209075
 46
67.3519209075
 79
2
 49
47.625
 49
-23.8125
 98
0
  0
LWPOLYLINE
  5
133
330
17
100
AcDbEntity
  8
HEIGHT_46FL
100
AcDbPolyline
 90
4
 70
1
 10
400.0
 20
1100.0
 10
700.0
 20
1400.0
 10
750.0
 20
1100.0
 10
500.0
 20
850.0
  0
HATCH
  5
134
330
17
100
AcDbEntity
  8
HATCH_H46
 62
7
100
AcDbHatch
 10
0.0
 20
0.0
 30
0.0
210
0.0
220
0.0
230
1.0
  2
ANSI33
 70
0
 71
0
 91
1
 92
3
 72
0
 73
1
 93
4
 10
400.0
 20
1100.0
 10
700.0
 20
1400.0
 10
750.0
 20
1100.0
 10
500.0
 20
850.0
 97
0
 75
1
 76
1
 52
0.0
 41
15.0
 77
0
 78
2
 53
45.0
 43
0.0
 44
0.0
 45
-67.3519209075
 46
67.3519209075
 79
0
 53
45.0
 43
67.351920795
 44
0.0
 45
-67.3519209075
 46
67.3519209075
 79
2
 49
47.625
 49
-23.8125
 98
0
  0
LWPOLYLINE
  5
135
330
17
100
AcDbEntity
  8
HEIGHT_46FL
100
AcDbPolyline
 90
4
 70
1
 10
1200.0
 20
1700.0
 10
1600.0
 20
2000.0
 10
1900.0
 20
1500.0
 10
1500.0
 20
1400.0
  0
HATCH
  5
136
330
17
100
AcDbEntity
  8
HATCH_H46
 62
7
100
AcDbHatch
 10
0.0
 20
0.0
 30
0.0
210
0.0
220
0.0
230
1.0
  2
ANSI33
 70
0
 71
0
 91
1
 92
3
 72
0
 73
1
 93
4
 10
1200.0
 20
1700.0
 10
1600.0
 20
2000.0
 10
1900.0
 20
1500.0
 10
1500.0
 20
1400.0
 97
0
 75
1
 76
1
 52
0.0
 41
15.0
 77
0
 78
2
 53
45.0
 43
0.0
 44
0.0
 45
-67.3519209075
 46
67.3519209075
 79
0
 53
45.0
 43
67.351920795
 44
0.0
 45
-67.3519209075
 46
67.3519209075
 79
2
 49
47.625
 49
-23.8125
 98
0
  0
LWPOLYLINE
  5
137
330
17
100
AcDbEntity
  8
HEIGHT_46FL
100
AcDbPolyline
 90
4
 70
1
 10
2100.0
 20
1700.0
 10
2200.0
 20
1300.0
 10
2000.0
 20
1100.0
 10
1800.0
 20
1400.0
  0
HATCH
  5
138
330
17
100
AcDbEntity
  8
HATCH_H46
 62
7
100
AcDbHatch
 10
0.0
 20
0.0
 30
0.0
210
0.0
220
0.0
230
1.0
  2
ANSI33
 70
0
 71
0
 91
1
 92
3
 72
0
 73
1
 93
4
 10
2100.0
 20
1700.0
 10
2200.0
 20
1300.0
 10
2000.0
 20
1100.0
 10
1800.0
 20
1400.0
 97
0
 75
1
 76
1
 52
0.0
 41
15.0
 77
0
 78
2
 53
45.0
 43
0.0
 44
0.0
 45
-67.3519209075
 46
67.3519209075
 79
0
 53
45.0
 43
67.351920795
 44
0.0
 45
-67.3519209075
 46
67.3519209075
 79
2
 49
47.625
 49
-23.8125
 98
0
  0
LWPOLYLINE
  5
139
330
17
100
AcDbEntity
  8
HEIGHT_46FL
100
AcDbPolyline
 90
4
 70
1
 10
600.0
 20
500.0
 10
800.0
 20
300.0
 10
1200.0
 20
200.0
 10
1200.0
 20
600.0
  0
HATCH
  5
13A
330
17
100
AcDbEntity
  8
HATCH_H46
 62
7
100
AcDbHatch
 10
0.0
 20
0.0
 30
0.0
210
0.0
220
0.0
230
1.0
  2
ANSI33
 70
0
 71
0
 91
1
 92
3
 72
0
 73
1
 93
4
 10
600.0
 20
500.0
 10
800.0
 20
300.0
 10
1200.0
 20
200.0
 10
1200.0
 20
600.0
 97
0
 75
1
 76
1
 52
0.0
 41
15.0
 77
0
 78
2
 53
45.0
 43
0.0
 44
0.0
 45
-67.3519209075
 46
67.3519209075
 79
0
 53
45.0
 43
67.351920795
 44
0.0
 45
-67.3519209075
 46
67.3519209075
 79
2
 49
47.625
 49
-23.8125
 98
0
  0
LWPOLYLINE
  5
13B
330
17
100
AcDbEntity
  8
HEIGHT_46FL
100
AcDbPolyline
 90
4
 70
1
 10
1800.0
 20
550.0
 10
2100.0
 20
600.0
 10
2200.0
 20
900.0
 10
1900.0
 20
800.0
  0
HATCH
  5
13C
330
17
100
AcDbEntity
  8
HATCH_H46
 62
7
100
AcDbHatch
 10
0.0
 20
0.0
 30
0.0
210
0.0
220
0.0
230
1.0
  2
ANSI33
 70
0
 71
0
 91
1
 92
3
 72
0
 73
1
 93
4
 10
1800.0
 20
550.0
 10
2100.0
 20
600.0
 10
2200.0
 20
900.0
 10
1900.0
 20
800.0
 97
0
 75
1
 76
1
 52
0.0
 41
15.0
 77
0
 78
2
 53
45.0
 43
0.0
 44
0.0
 45
-67.3519209075
 46
67.3519209075
 79
0
 53
45.0
 43
67.351920795
 44
0.0
 45
-67.3519209075
 46
67.3519209075
 79
2
 49
47.625
 49
-23.8125
 98
0
  0
LWPOLYLINE
  5
13D
330
17
100
AcDbEntity
  8
HEIGHT_68FL
100
AcDbPolyline
 90
7
 70
1
 10
750.0
 20
1400.0
 10
1500.0
 20
1400.0
 10
1800.0
 20
1100.0
 10
1700.0
 20
800.0
 10
1200.0
 20
600.0
 10
800.0
 20
800.0
 10
500.0
 20
1100.0
  0
HATCH
  5
13E
330
17
100
AcDbEntity
  8
HATCH_H68
 62
7
100
AcDbHatch
 10
0.0
 20
0.0
 30
0.0
210
0.0
220
0.0
230
1.0
  2
ANSI37
 70
0
 71
0
 91
1
 92
3
 72
0
 73
1
 93
7
 10
750.0
 20
1400.0
 10
1500.0
 20
1400.0
 10
1800.0
 20
1100.0
 10
1700.0
 20
800.0
 10
1200.0
 20
600.0
 10
800.0
 20
800.0
 10
500.0
 20
1100.0
 97
0
 75
1
 76
1
 52
0.0
 41
12.0
 77
0
 78
2
 53
45.0
 43
0.0
 44
0.0
 45
-26.9407683636
 46
26.9407683636
 79
0
 53
135.0
 43
0.0
 44
0.0
 45
-26.9407683636
 46
-26.9407683636
 79
0
 98
0
  0
LWPOLYLINE
  5
13F
330
17
100
AcDbEntity
  8
HEIGHT_1014FL
100
AcDbPolyline
 90
6
 70
1
 10
800.0
 20
1300.0
 10
1400.0
 20
1300.0
 10
1500.0
 20
1000.0
 10
1400.0
 20
750.0
 10
900.0
 20
750.0
 10
700.0
 20
1000.0
  0
HATCH
  5
140
330
17
100
AcDbEntity
  8
HATCH_H1014
 62
7
100
AcDbHatch
 10
0.0
 20
0.0
 30
0.0
210
0.0
220
0.0
230
1.0
  2
CROSS
 70
0
 71
0
 91
1
 92
3
 72
0
 73
1
 93
6
 10
800.0
 20
1300.0
 10
1400.0
 20
1300.0
 10
1500.0
 20
1000.0
 10
1400.0
 20
750.0
 10
900.0
 20
750.0
 10
700.0
 20
1000.0
 97
0
 75
1
 76
1
 52
0.0
 41
8.0
 77
0
 78
2
 53
0.0
 43
0.0
 44
0.0
 45
50.8
 46
50.8
 79
2
 49
25.4
 49
-76.2
 53
90.0
 43
12.7
 44
-12.7
 45
-50.8
 46
50.8
 79
2
 49
25.4
 49
-76.2
 98
0
  0
TEXT
  5
141
330
17
100
AcDbEntity
  8
HEIGHT_2FL
100
AcDbText
 10
350.0
 20
1750.0
 30
0.0
 40
14.0
  1
2 FLOORS (9m) - VILLAS
  7
LABEL
 72
1
 11
350.0
 21
1750.0
 31
0.0
100
AcDbText
 73
2
  0
TEXT
  5
142
330
17
100
AcDbEntity
  8
HEIGHT_46FL
100
AcDbText
 10
1400.0
 20
1550.0
 30
0.0
 40
14.0
  1
4-6 FLOORS (15-20m) - MIDRISE
  7
LABEL
 72
1
 11
1400.0
 21
1550.0
 31
0.0
100
AcDbText
 73
2
  0
TEXT
  5
143
330
17
100
AcDbEntity
  8
HEIGHT_68FL
100
AcDbText
 10
1200.0
 20
1100.0
 30
0.0
 40
14.0
  1
6-8 FLOORS (20-26m) - MIXED USE
  7
LABEL
 72
1
 11
1200.0
 21
1100.0
 31
0.0
100
AcDbText
 73
2
  0
TEXT
  5
144
330
17
100
AcDbEntity
  8
HEIGHT_1014FL
100
AcDbText
 10
1100.0
 20
1050.0
 30
0.0
 40
16.0
  1
10-14 FLOORS (35-48m)
  7
TITLE
 72
1
 11
1100.0
 21
1050.0
 31
0.0
100
AcDbText
 73
2
  0
TEXT
  5
145
330
17
100
AcDbEntity
  8
HEIGHT_1014FL
100
AcDbText
 10
1100.0
 20
1000.0
 30
0.0
 40
10.0
  1
CITY CENTER / TOWERS
  7
LABEL
 72
1
 11
1100.0
 21
1000.0
 31
0.0
100
AcDbText
 73
2
  0
LINE
  5
146
330
17
100
AcDbEntity
  8
ROADS_CENTER
100
AcDbLine
 10
100.0
 20
1000.0
 30
0.0
 11
2200.0
 21
1000.0
 31
0.0
  0
LINE
  5
147
330
17
100
AcDbEntity
  8
ROADS_CENTER
100
AcDbLine
 10
1100.0
 20
100.0
 30
0.0
 11
1100.0
 21
2050.0
 31
0.0
  0
INSERT
  5
148
330
17
100
AcDbEntity
  8
NORTH_ARROW
100
AcDbBlockReference
  2
NORTH_ARROW
 10
2350.0
 20
1900.0
 30
0.0
 41
4.0
 42
4.0
  0
INSERT
  5
14A
330
17
100
AcDbEntity
  8
SCALE_BAR
100
AcDbBlockReference
  2
SCALE_BAR_1000
 10
100.0
 20
-60.0
 30
0.0
 41
2.0
 42
2.0
  0
LWPOLYLINE
  5
151
330
17
100
AcDbEntity
  8
HEIGHT_2FL
370
13
100
AcDbPolyline
 90
4
 70
1
 10
351.5957216513056
 20
1511.4799991080358
 10
375.1052500144302
 20
1511.4799991080358
 10
375.1052500144302
 20
1530.2876217985356
 10
351.5957216513056
 20
1530.2876217985356
  0
LWPOLYLINE
  5
152
330
17
100
AcDbEntity
  8
HEIGHT_2FL
370
13
100
AcDbPolyline
 90
4
 70
1
 10
272.73594286307673
 20
1584.8479400718957
 10
295.7142664313577
 20
1584.8479400718957
 10
295.7142664313577
 20
1603.2305989265205
 10
272.73594286307673
 20
1603.2305989265205
  0
LWPOLYLINE
  5
153
330
17
100
AcDbEntity
  8
HEIGHT_2FL
370
13
100
AcDbPolyline
 90
4
 70
1
 10
336.1355372657134
 20
1852.1279919032902
 10
358.1473747690354
 20
1852.1279919032902
 10
358.1473747690354
 20
1869.7374619059478
 10
336.1355372657134
 20
1869.7374619059478
  0
LWPOLYLINE
  5
154
330
17
100
AcDbEntity
  8
HEIGHT_2FL
370
13
100
AcDbPolyline
 90
4
 70
1
 10
310.50743030247395
 20
1504.060445775471
 10
334.9880560802443
 20
1504.060445775471
 10
334.9880560802443
 20
1523.6449463976871
 10
310.50743030247395
 20
1523.6449463976871
  0
LWPOLYLINE
  5
155
330
17
100
AcDbEntity
  8
HEIGHT_2FL
370
13
100
AcDbPolyline
 90
4
 70
1
 10
234.24518478320852
 20
1788.0298656416776
 10
254.1309632516964
 20
1788.0298656416776
 10
254.1309632516964
 20
1803.9384884164679
 10
234.24518478320852
 20
1803.9384884164679
  0
LWPOLYLINE
  5
156
330
17
100
AcDbEntity
  8
HEIGHT_2FL
370
13
100
AcDbPolyline
 90
4
 70
1
 10
503.26586139298655
 20
1776.2437357786093
 10
524.7248903903961
 20
1776.2437357786093
 10
524.7248903903961
 20
1793.410958976537
 10
503.26586139298655
 20
1793.410958976537
  0
LWPOLYLINE
  5
157
330
17
100
AcDbEntity
  8
HEIGHT_2FL
370
13
100
AcDbPolyline
 90
4
 70
1
 10
396.32853403143446
 20
1817.173147252927
 10
412.25906753698115
 20
1817.173147252927
 10
412.25906753698115
 20
1829.9175740573644
 10
396.32853403143446
 20
1829.9175740573644
  0
LWPOLYLINE
  5
158
330
17
100
AcDbEntity
  8
HEIGHT_2FL
370
13
100
AcDbPolyline
 90
4
 70
1
 10
288.6385601890121
 20
1776.7148621180809
 10
306.700620490313
 20
1776.7148621180809
 10
306.700620490313
 20
1791.1645103591216
 10
288.6385601890121
 20
1791.1645103591216
  0
LWPOLYLINE
  5
159
330
17
100
AcDbEntity
  8
HEIGHT_2FL
370
13
100
AcDbPolyline
 90
4
 70
1
 10
432.62223413294686
 20
1689.30419550381
 10
452.93145344440455
 20
1689.30419550381
 10
452.93145344440455
 20
1705.5515709529761
 10
432.62223413294686
 20
1705.5515709529761
  0
LWPOLYLINE
  5
15A
330
17
100
AcDbEntity
  8
HEIGHT_2FL
370
13
100
AcDbPolyline
 90
4
 70
1
 10
370.20152508208594
 20
1798.374174685444
 10
388.50943805404523
 20
1798.374174685444
 10
388.50943805404523
 20
1813.0205050630113
 10
370.20152508208594
 20
1813.0205050630113
  0
LWPOLYLINE
  5
15B
330
17
100
AcDbEntity
  8
HEIGHT_2FL
370
13
100
AcDbPolyline
 90
4
 70
1
 10
481.1419768743076
 20
1608.3665707904786
 10
498.656013636317
 20
1608.3665707904786
 10
498.656013636317
 20
1622.377800200086
 10
481.1419768743076
 20
1622.377800200086
  0
LWPOLYLINE
  5
15C
330
17
100
AcDbEntity
  8
HEIGHT_2FL
370
13
100
AcDbPolyline
 90
4
 70
1
 10
248.26235390092234
 20
1577.033717380607
 10
264.45790131347286
 20
1577.033717380607
 10
264.45790131347286
 20
1589.9901553106474
 10
248.26235390092234
 20
1589.9901553106474
  0
LWPOLYLINE
  5
15D
330
17
100
AcDbEntity
  8
HEIGHT_2FL
370
13
100
AcDbPolyline
 90
4
 70
1
 10
414.34558615349994
 20
1804.8758437936413
 10
431.1970845778766
 20
1804.8758437936413
 10
431.1970845778766
 20
1818.3570425331425
 10
414.34558615349994
 20
1818.3570425331425
  0
LWPOLYLINE
  5
15E
330
17
100
AcDbEntity
  8
HEIGHT_2FL
370
13
100
AcDbPolyline
 90
4
 70
1
 10
286.5538559514423
 20
1693.6794348850835
 10
308.7997059623728
 20
1693.6794348850835
 10
308.7997059623728
 20
1711.476114893828
 10
286.5538559514423
 20
1711.476114893828
  0
LWPOLYLINE
  5
15F
330
17
100
AcDbEntity
  8
HEIGHT_2FL
370
13
100
AcDbPolyline
 90
4
 70
1
 10
590.6428091532227
 20
1709.8547476434433
 10
608.4727961859722
 20
1709.8547476434433
 10
608.4727961859722
 20
1724.118737269643
 10
590.6428091532227
 20
1724.118737269643
  0
LWPOLYLINE
  5
160
330
17
100
AcDbEntity
  8
HEIGHT_2FL
370
13
100
AcDbPolyline
 90
4
 70
1
 10
240.2104432363163
 20
1577.6470312364295
 10
257.4852748711419
 20
1577.6470312364295
 10
257.4852748711419
 20
1591.46689654429
 10
240.2104432363163
 20
1591.46689654429
  0
LWPOLYLINE
  5
161
330
17
100
AcDbEntity
  8
HEIGHT_2FL
370
13
100
AcDbPolyline
 90
4
 70
1
 10
271.7766174741613
 20
1505.6593469024256
 10
292.11796836683794
 20
1505.6593469024256
 10
292.11796836683794
 20
1521.9324276165669
 10
271.7766174741613
 20
1521.9324276165669
  0
LWPOLYLINE
  5
162
330
17
100
AcDbEntity
  8
HEIGHT_2FL
370
13
100
AcDbPolyline
 90
4
 70
1
 10
309.72453071330693
 20
1889.7179724410953
 10
330.258120381293
 20
1889.7179724410953
 10
330.258120381293
 20
1906.1448441754842
 10
309.72453071330693
 20
1906.1448441754842
  0
LWPOLYLINE
  5
163
330
17
100
AcDbEntity
  8
HEIGHT_2FL
370
13
100
AcDbPolyline
 90
4
 70
1
 10
478.96695716407777
 20
1550.5117971833636
 10
502.6515691367072
 20
1550.5117971833636
 10
502.6515691367072
 20
1569.4594867614671
 10
478.96695716407777
 20
1569.4594867614671
  0
LWPOLYLINE
  5
164
330
17
100
AcDbEntity
  8
HEIGHT_2FL
370
13
100
AcDbPolyline
 90
4
 70
1
 10
396.35147780951155
 20
1849.0878939994138
 10
417.09212000577486
 20
1849.0878939994138
 10
417.09212000577486
 20
1865.6804077564245
 10
396.35147780951155
 20
1865.6804077564245
  0
LWPOLYLINE
  5
165
330
17
100
AcDbEntity
  8
HEIGHT_2FL
370
13
100
AcDbPolyline
 90
4
 70
1
 10
387.7587779722041
 20
1676.1875192544042
 10
404.6024146761049
 20
1676.1875192544042
 10
404.6024146761049
 20
1689.6624286175247
 10
387.7587779722041
 20
1689.6624286175247
  0
LWPOLYLINE
  5
166
330
17
100
AcDbEntity
  8
HEIGHT_2FL
370
13
100
AcDbPolyline
 90
4
 70
1
 10
220.55068687343112
 20
1876.4254387072413
 10
240.32797874608798
 20
1876.4254387072413
 10
240.32797874608798
 20
1892.2472722053667
 10
220.55068687343112
 20
1892.2472722053667
  0
LWPOLYLINE
  5
167
330
17
100
AcDbEntity
  8
HEIGHT_2FL
370
13
100
AcDbPolyline
 90
4
 70
1
 10
528.8462581197721
 20
1660.2829769007758
 10
544.5870798223285
 20
1660.2829769007758
 10
544.5870798223285
 20
1672.875634262821
 10
528.8462581197721
 20
1672.875634262821
  0
LWPOLYLINE
  5
168
330
17
100
AcDbEntity
  8
HEIGHT_2FL
370
13
100
AcDbPolyline
 90
4
 70
1
 10
451.7782827807993
 20
1521.4436297170132
 10
468.27025862553586
 20
1521.4436297170132
 10
468.27025862553586
 20
1534.6372103928024
 10
451.7782827807993
 20
1534.6372103928024
  0
LWPOLYLINE
  5
169
330
17
100
AcDbEntity
  8
HEIGHT_2FL
370
13
100
AcDbPolyline
 90
4
 70
1
 10
425.1358388338257
 20
1621.534204736891
 10
450.0750200609279
 20
1621.534204736891
 10
450.0750200609279
 20
1641.4855497185729
 10
425.1358388338257
 20
1641.4855497185729
  0
LWPOLYLINE
  5
16A
330
17
100
AcDbEntity
  8
HEIGHT_2FL
370
13
100
AcDbPolyline
 90
4
 70
1
 10
247.38062488458462
 20
1805.7773781304777
 10
268.4438013970142
 20
1805.7773781304777
 10
268.4438013970142
 20
1822.6279193404214
 10
247.38062488458462
 20
1822.6279193404214
  0
LWPOLYLINE
  5
16B
330
17
100
AcDbEntity
  8
HEIGHT_2FL
370
13
100
AcDbPolyline
 90
4
 70
1
 10
516.2963319373678
 20
1590.2748548260138
 10
536.52205728867
 20
1590.2748548260138
 10
536.52205728867
 20
1606.4554351070556
 10
516.2963319373678
 20
1606.4554351070556
  0
LWPOLYLINE
  5
16C
330
17
100
AcDbEntity
  8
HEIGHT_2FL
370
13
100
AcDbPolyline
 90
4
 70
1
 10
380.2057859555017
 20
1677.0884016077314
 10
403.80745261376353
 20
1677.0884016077314
 10
403.80745261376353
 20
1695.9697349343407
 10
380.2057859555017
 20
1695.9697349343407
  0
LWPOLYLINE
  5
16D
330
17
100
AcDbEntity
  8
HEIGHT_2FL
370
13
100
AcDbPolyline
 90
4
 70
1
 10
596.0125041867192
 20
1622.1520977277441
 10
617.2227773974407
 20
1622.1520977277441
 10
617.2227773974407
 20
1639.1203162963213
 10
596.0125041867192
 20
1639.1203162963213
  0
LWPOLYLINE
  5
16E
330
17
100
AcDbEntity
  8
HEIGHT_2FL
370
13
100
AcDbPolyline
 90
4
 70
1
 10
443.85236489805214
 20
1796.035722193818
 10
468.32826690130594
 20
1796.035722193818
 10
468.32826690130594
 20
1815.616443796421
 10
443.85236489805214
 20
1815.616443796421
  0
LWPOLYLINE
  5
16F
330
17
100
AcDbEntity
  8
HEIGHT_2FL
370
13
100
AcDbPolyline
 90
4
 70
1
 10
1693.504557620598
 20
1584.4100781221573
 10
1715.1088389925185
 20
1584.4100781221573
 10
1715.1088389925185
 20
1601.6935032196936
 10
1693.504557620598
 20
1601.6935032196936
  0
LWPOLYLINE
  5
170
330
17
100
AcDbEntity
  8
HEIGHT_2FL
370
13
100
AcDbPolyline
 90
4
 70
1
 10
1670.6756920213948
 20
1569.5254193305739
 10
1686.4263407104065
 20
1569.5254193305739
 10
1686.4263407104065
 20
1582.1259382817832
 10
1670.6756920213948
 20
1582.1259382817832
  0
LWPOLYLINE
  5
171
330
17
100
AcDbEntity
  8
HEIGHT_2FL
370
13
100
AcDbPolyline
 90
4
 70
1
 10
1601.2040751712987
 20
1680.201481847081
 10
1622.1421871224943
 20
1680.201481847081
 10
1622.1421871224943
 20
1696.9519714080375
 10
1601.2040751712987
 20
1696.9519714080375
  0
LWPOLYLINE
  5
172
330
17
100
AcDbEntity
  8
HEIGHT_2FL
370
13
100
AcDbPolyline
 90
4
 70
1
 10
1731.0666800639624
 20
1592.5904938224103
 10
1753.1362383627527
 20
1592.5904938224103
 10
1753.1362383627527
 20
1610.2461404614426
 10
1731.0666800639624
 20
1610.2461404614426
  0
LWPOLYLINE
  5
173
330
17
100
AcDbEntity
  8
HEIGHT_2FL
370
13
100
AcDbPolyline
 90
4
 70
1
 10
1916.3444011421727
 20
1681.6125305628173
 10
1938.218250342885
 20
1681.6125305628173
 10
1938.218250342885
 20
1699.1116099233873
 10
1916.3444011421727
 20
1699.1116099233873
  0
LWPOLYLINE
  5
174
330
17
100
AcDbEntity
  8
HEIGHT_2FL
370
13
100
AcDbPolyline
 90
4
 70
1
 10
2015.7599700171468
 20
1815.1312106586925
 10
2037.010550088789
 20
1815.1312106586925
 10
2037.010550088789
 20
1832.1316747160063
 10
2015.7599700171468
 20
1832.1316747160063
  0
LWPOLYLINE
  5
175
330
17
100
AcDbEntity
  8
HEIGHT_2FL
370
13
100
AcDbPolyline
 90
4
 70
1
 10
1897.5323692840157
 20
1873.4673833782053
 10
1916.7837589450578
 20
1873.4673833782053
 10
1916.7837589450578
 20
1888.868495107039
 10
1897.5323692840157
 20
1888.868495107039
  0
LWPOLYLINE
  5
176
330
17
100
AcDbEntity
  8
HEIGHT_2FL
370
13
100
AcDbPolyline
 90
4
 70
1
 10
1845.0530704197604
 20
1759.0538893609923
 10
1869.1371848718863
 20
1759.0538893609923
 10
1869.1371848718863
 20
1778.3211809226932
 10
1845.0530704197604
 20
1778.3211809226932
  0
LWPOLYLINE
  5
177
330
17
100
AcDbEntity
  8
HEIGHT_2FL
370
13
100
AcDbPolyline
 90
4
 70
1
 10
1971.9840218425268
 20
1528.5639347423257
 10
1988.6432497347341
 20
1528.5639347423257
 10
1988.6432497347341
 20
1541.8913170560916
 10
1971.9840218425268
 20
1541.8913170560916
  0
LWPOLYLINE
  5
178
330
17
100
AcDbEntity
  8
HEIGHT_2FL
370
13
100
AcDbPolyline
 90
4
 70
1
 10
1738.4253156764046
 20
1799.5830888278492
 10
1759.1173861695954
 20
1799.5830888278492
 10
1759.1173861695954
 20
1816.136745222402
 10
1738.4253156764046
 20
1816.136745222402
  0
LWPOLYLINE
  5
179
330
17
100
AcDbEntity
  8
HEIGHT_2FL
370
13
100
AcDbPolyline
 90
4
 70
1
 10
1729.8747647376288
 20
1549.7414632698833
 10
1751.7615446497498
 20
1549.7414632698833
 10
1751.7615446497498
 20
1567.2508871995801
 10
1729.8747647376288
 20
1567.2508871995801
  0
LWPOLYLINE
  5
17A
330
17
100
AcDbEntity
  8
HEIGHT_2FL
370
13
100
AcDbPolyline
 90
4
 70
1
 10
1914.880158239073
 20
1877.0704962976163
 10
1934.8848800102521
 20
1877.0704962976163
 10
1934.8848800102521
 20
1893.0742737145597
 10
1914.880158239073
 20
1893.0742737145597
  0
LWPOLYLINE
  5
17B
330
17
100
AcDbEntity
  8
HEIGHT_2FL
370
13
100
AcDbPolyline
 90
4
 70
1
 10
1822.207848705288
 20
1532.1767407597204
 10
1837.606456547124
 20
1532.1767407597204
 10
1837.606456547124
 20
1544.4956270331893
 10
1822.207848705288
 20
1544.4956270331893
  0
LWPOLYLINE
  5
17C
330
17
100
AcDbEntity
  8
HEIGHT_2FL
370
13
100
AcDbPolyline
 90
4
 70
1
 10
1794.4128988723476
 20
1628.92863334332
 10
1811.9165778964675
 20
1628.92863334332
 10
1811.9165778964675
 20
1642.9315765626159
 10
1794.4128988723476
 20
1642.9315765626159
  0
LWPOLYLINE
  5
17D
330
17
100
AcDbEntity
  8
HEIGHT_2FL
370
13
100
AcDbPolyline
 90
4
 70
1
 10
1641.0970989839434
 20
1884.7644408771348
 10
1664.4566851230052
 20
1884.7644408771348
 10
1664.4566851230052
 20
1903.4521097883842
 10
1641.0970989839434
 20
1903.4521097883842
  0
LWPOLYLINE
  5
17E
330
17
100
AcDbEntity
  8
HEIGHT_2FL
370
13
100
AcDbPolyline
 90
4
 70
1
 10
1858.8395991489688
 20
1880.314511122541
 10
1883.8353233177434
 20
1880.314511122541
 10
1883.8353233177434
 20
1900.3110904575606
 10
1858.8395991489688
 20
1900.3110904575606
  0
LWPOLYLINE
  5
17F
330
17
100
AcDbEntity
  8
HEIGHT_2FL
370
13
100
AcDbPolyline
 90
4
 70
1
 10
1902.5267129364577
 20
1607.8044103868215
 10
1917.929029667904
 20
1607.8044103868215
 10
1917.929029667904
 20
1620.1262637719783
 10
1902.5267129364577
 20
1620.1262637719783
  0
LWPOLYLINE
  5
180
330
17
100
AcDbEntity
  8
HEIGHT_2FL
370
13
100
AcDbPolyline
 90
4
 70
1
 10
1940.3209736856506
 20
1688.2003293006535
 10
1961.8360685799876
 20
1688.2003293006535
 10
1961.8360685799876
 20
1705.412405216123
 10
1940.3209736856506
 20
1705.412405216123
  0
LWPOLYLINE
  5
181
330
17
100
AcDbEntity
  8
HEIGHT_2FL
370
13
100
AcDbPolyline
 90
4
 70
1
 10
2012.2327545670455
 20
1572.5956588892504
 10
2033.086050819824
 20
1572.5956588892504
 10
2033.086050819824
 20
1589.2782958914734
 10
2012.2327545670455
 20
1589.2782958914734
  0
LWPOLYLINE
  5
182
330
17
100
AcDbEntity
  8
HEIGHT_2FL
370
13
100
AcDbPolyline
 90
4
 70
1
 10
1885.653123754339
 20
1696.6903208764054
 10
1901.5655478172773
 20
1696.6903208764054
 10
1901.5655478172773
 20
1709.420260126756
 10
1885.653123754339
 20
1709.420260126756
  0
LWPOLYLINE
  5
183
330
17
100
AcDbEntity
  8
HEIGHT_2FL
370
13
100
AcDbPolyline
 90
4
 70
1
 10
1756.5824753325928
 20
1633.323357466037
 10
1778.2838104278046
 20
1633.323357466037
 10
1778.2838104278046
 20
1650.6844255422063
 10
1756.5824753325928
 20
1650.6844255422063
  0
LWPOLYLINE
  5
184
330
17
100
AcDbEntity
  8
HEIGHT_2FL
370
13
100
AcDbPolyline
 90
4
 70
1
 10
1985.9798924801587
 20
1631.921465431586
 10
2007.916629219993
 20
1631.921465431586
 10
2007.916629219993
 20
1649.4708548234535
 10
1985.9798924801587
 20
1649.4708548234535
  0
LWPOLYLINE
  5
185
330
17
100
AcDbEntity
  8
HEIGHT_2FL
370
13
100
AcDbPolyline
 90
4
 70
1
 10
1729.6980079126552
 20
1878.0774158252843
 10
1752.833668260035
 20
1878.0774158252843
 10
1752.833668260035
 20
1896.585944103188
 10
1729.6980079126552
 20
1896.585944103188
  0
LWPOLYLINE
  5
186
330
17
100
AcDbEntity
  8
HEIGHT_2FL
370
13
100
AcDbPolyline
 90
4
 70
1
 10
1847.5434740373023
 20
1681.9303634406917
 10
1865.688645609004
 20
1681.9303634406917
 10
1865.688645609004
 20
1696.4465006980531
 10
1847.5434740373023
 20
1696.4465006980531
  0
LWPOLYLINE
  5
187
330
17
100
AcDbEntity
  8
HEIGHT_2FL
370
13
100
AcDbPolyline
 90
4
 70
1
 10
1745.4732038241975
 20
1888.0738907234308
 10
1764.514954394205
 20
1888.0738907234308
 10
1764.514954394205
 20
1903.3072911794368
 10
1745.4732038241975
 20
1903.3072911794368
  0
LWPOLYLINE
  5
188
330
17
100
AcDbEntity
  8
HEIGHT_46FL
370
18
100
AcDbPolyline
 90
4
 70
1
 10
1063.1366270961946
 20
1696.4357644345262
 10
1122.8664386906885
 20
1696.4357644345262
 10
1122.8664386906885
 20
1737.28763632167
 10
1063.1366270961946
 20
1737.28763632167
  0
LWPOLYLINE
  5
189
330
17
100
AcDbEntity
  8
HEIGHT_46FL
370
18
100
AcDbPolyline
 90
4
 70
1
 10
971.9228137193893
 20
1456.274762418358
 10
1022.7761944939396
 20
1456.274762418358
 10
1022.7761944939396
 20
1501.4036254994694
 10
971.9228137193893
 20
1501.4036254994694
  0
LWPOLYLINE
  5
18A
330
17
100
AcDbEntity
  8
HEIGHT_46FL
370
18
100
AcDbPolyline
 90
4
 70
1
 10
1162.867867930508
 20
1627.997160818305
 10
1208.9746150810163
 20
1627.997160818305
 10
1208.9746150810163
 20
1668.9815536000117
 10
1162.867867930508
 20
1668.9815536000117
  0
LWPOLYLINE
  5
18B
330
17
100
AcDbEntity
  8
HEIGHT_46FL
370
18
100
AcDbPolyline
 90
4
 70
1
 10
1434.905484760003
 20
1531.4348285217134
 10
1495.8529856336681
 20
1531.4348285217134
 10
1495.8529856336681
 20
1563.8633501889658
 10
1434.905484760003
 20
1563.8633501889658
  0
LWPOLYLINE
  5
18C
330
17
100
AcDbEntity
  8
HEIGHT_46FL
370
18
100
AcDbPolyline
 90
4
 70
1
 10
1475.832134239525
 20
1582.6615001245896
 10
1523.0110581093545
 20
1582.6615001245896
 10
1523.0110581093545
 20
1615.8290634006942
 10
1475.832134239525
 20
1615.8290634006942
  0
LWPOLYLINE
  5
18D
330
17
100
AcDbEntity
  8
HEIGHT_46FL
370
18
100
AcDbPolyline
 90
4
 70
1
 10
1095.755106302403
 20
1565.67542271612
 10
1138.5513823408487
 20
1565.67542271612
 10
1138.5513823408487
 20
1615.5205655040245
 10
1095.755106302403
 20
1615.5205655040245
  0
LWPOLYLINE
  5
18E
330
17
100
AcDbEntity
  8
HEIGHT_46FL
370
18
100
AcDbPolyline
 90
4
 70
1
 10
1421.6368906357511
 20
1538.434368253635
 10
1465.160875108438
 20
1538.434368253635
 10
1465.160875108438
 20
1585.077231729013
 10
1421.6368906357511
 20
1585.077231729013
  0
LWPOLYLINE
  5
18F
330
17
100
AcDbEntity
  8
HEIGHT_46FL
370
18
100
AcDbPolyline
 90
4
 70
1
 10
1048.5379542364758
 20
1614.9809977975374
 10
1103.8041146885612
 20
1614.9809977975374
 10
1103.8041146885612
 20
1650.449495731803
 10
1048.5379542364758
 20
1650.449495731803
  0
LWPOLYLINE
  5
190
330
17
100
AcDbEntity
  8
HEIGHT_46FL
370
18
100
AcDbPolyline
 90
4
 70
1
 10
1351.251551019025
 20
1694.0733897810126
 10
1398.5634782012792
 20
1694.0733897810126
 10
1398.5634782012792
 20
1735.098691318622
 10
1351.251551019025
 20
1735.098691318622
  0
LWPOLYLINE
  5
191
330
17
100
AcDbEntity
  8
HEIGHT_46FL
370
18
100
AcDbPolyline
 90
4
 70
1
 10
945.2274119224348
 20
1676.5604449794687
 10
1000.4746386702217
 20
1676.5604449794687
 10
1000.4746386702217
 20
1724.1469700823982
 10
945.2274119224348
 20
1724.1469700823982
  0
LWPOLYLINE
  5
192
330
17
100
AcDbEntity
  8
HEIGHT_46FL
370
18
100
AcDbPolyline
 90
4
 70
1
 10
1377.6242409857293
 20
1482.8742208466124
 10
1441.3244264458228
 20
1482.8742208466124
 10
1441.3244264458228
 20
1521.1730693176394
 10
1377.6242409857293
 20
1521.1730693176394
  0
LWPOLYLINE
  5
193
330
17
100
AcDbEntity
  8
HEIGHT_46FL
370
18
100
AcDbPolyline
 90
4
 70
1
 10
1440.8235543142682
 20
1552.321302742897
 10
1505.4400385098356
 20
1552.321302742897
 10
1505.4400385098356
 20
1587.9780824085535
 10
1440.8235543142682
 20
1587.9780824085535
  0
LWPOLYLINE
  5
194
330
17
100
AcDbEntity
  8
HEIGHT_46FL
370
18
100
AcDbPolyline
 90
4
 70
1
 10
868.7002647945905
 20
1576.0813167242484
 10
938.6673347914706
 20
1576.0813167242484
 10
938.6673347914706
 20
1615.8741236573624
 10
868.7002647945905
 20
1615.8741236573624
  0
LWPOLYLINE
  5
195
330
17
100
AcDbEntity
  8
HEIGHT_46FL
370
18
100
AcDbPolyline
 90
4
 70
1
 10
733.7358765445102
 20
1561.5741733111622
 10
784.0895947953004
 20
1561.5741733111622
 10
784.0895947953004
 20
1602.6125216525784
 10
733.7358765445102
 20
1602.6125216525784
  0
LWPOLYLINE
  5
196
330
17
100
AcDbEntity
  8
HEIGHT_46FL
370
18
100
AcDbPolyline
 90
4
 70
1
 10
1089.0870566628057
 20
1536.6033850599504
 10
1138.7403771696768
 20
1536.6033850599504
 10
1138.7403771696768
 20
1570.3764325340924
 10
1089.0870566628057
 20
1570.3764325340924
  0
LWPOLYLINE
  5
197
330
17
100
AcDbEntity
  8
HEIGHT_46FL
370
18
100
AcDbPolyline
 90
4
 70
1
 10
1227.7485848585143
 20
1571.5392925954702
 10
1274.755458240251
 20
1571.5392925954702
 10
1274.755458240251
 20
1617.0501820974555
 10
1227.7485848585143
 20
1617.0501820974555
  0
LWPOLYLINE
  5
198
330
17
100
AcDbEntity
  8
HEIGHT_46FL
370
18
100
AcDbPolyline
 90
4
 70
1
 10
639.2825691875718
 20
1623.4115454695589
 10
700.4394056183219
 20
1623.4115454695589
 10
700.4394056183219
 20
1669.6397235208565
 10
639.2825691875718
 20
1669.6397235208565
  0
LWPOLYLINE
  5
199
330
17
100
AcDbEntity
  8
HEIGHT_46FL
370
18
100
AcDbPolyline
 90
4
 70
1
 10
947.4708772418842
 20
1599.1066488453605
 10
1012.0933037931709
 20
1599.1066488453605
 10
1012.0933037931709
 20
1648.7230116185563
 10
947.4708772418842
 20
1648.7230116185563
  0
LWPOLYLINE
  5
19A
330
17
100
AcDbEntity
  8
HEIGHT_46FL
370
18
100
AcDbPolyline
 90
4
 70
1
 10
1045.795784654781
 20
1411.1058834036728
 10
1100.86451915877
 20
1411.1058834036728
 10
1100.86451915877
 20
1452.9094919898641
 10
1045.795784654781
 20
1452.9094919898641
  0
LWPOLYLINE
  5
19B
330
17
100
AcDbEntity
  8
HEIGHT_46FL
370
18
100
AcDbPolyline
 90
4
 70
1
 10
1382.7302820259938
 20
1662.2571122162926
 10
1435.9394683191142
 20
1662.2571122162926
 10
1435.9394683191142
 20
1702.7761339524438
 10
1382.7302820259938
 20
1702.7761339524438
  0
LWPOLYLINE
  5
19C
330
17
100
AcDbEntity
  8
HEIGHT_46FL
370
18
100
AcDbPolyline
 90
4
 70
1
 10
1011.2352670268181
 20
1616.7331482711927
 10
1063.534625619209
 20
1616.7331482711927
 10
1063.534625619209
 20
1659.8287747997474
 10
1011.2352670268181
 20
1659.8287747997474
  0
LWPOLYLINE
  5
19D
330
17
100
AcDbEntity
  8
HEIGHT_46FL
370
18
100
AcDbPolyline
 90
4
 70
1
 10
738.925096894394
 20
1540.8471802954195
 10
808.0012058116205
 20
1540.8471802954195
 10
808.0012058116205
 20
1577.6184049764481
 10
738.925096894394
 20
1577.6184049764481
  0
LWPOLYLINE
  5
19E
330
17
100
AcDbEntity
  8
HEIGHT_46FL
370
18
100
AcDbPolyline
 90
4
 70
1
 10
1223.4341387281938
 20
1594.9509957737819
 10
1288.9870974987145
 20
1594.9509957737819
 10
1288.9870974987145
 20
1641.9978225050997
 10
1223.4341387281938
 20
1641.9978225050997
  0
LWPOLYLINE
  5
19F
330
17
100
AcDbEntity
  8
HEIGHT_46FL
370
18
100
AcDbPolyline
 90
4
 70
1
 10
1373.4079657514399
 20
1514.0028192567966
 10
1422.907800369442
 20
1514.0028192567966
 10
1422.907800369442
 20
1558.3771677612563
 10
1373.4079657514399
 20
1558.3771677612563
  0
LWPOLYLINE
  5
1A0
330
17
100
AcDbEntity
  8
HEIGHT_46FL
370
18
100
AcDbPolyline
 90
4
 70
1
 10
1283.461628400927
 20
1661.714905219561
 10
1324.5386013960576
 20
1661.714905219561
 10
1324.5386013960576
 20
1693.083320163192
 10
1283.461628400927
 20
1693.083320163192
  0
LWPOLYLINE
  5
1A1
330
17
100
AcDbEntity
  8
HEIGHT_46FL
370
18
100
AcDbPolyline
 90
4
 70
1
 10
1168.0449151691764
 20
1676.278729634089
 10
1237.9676928578629
 20
1676.278729634089
 10
1237.9676928578629
 20
1721.2140569688474
 10
1168.0449151691764
 20
1721.2140569688474
  0
LWPOLYLINE
  5
1A2
330
17
100
AcDbEntity
  8
HEIGHT_46FL
370
18
100
AcDbPolyline
 90
4
 70
1
 10
990.574324730813
 20
1429.5329379149593
 10
1049.5867595942368
 20
1429.5329379149593
 10
1049.5867595942368
 20
1476.984522567101
 10
990.574324730813
 20
1476.984522567101
  0
LWPOLYLINE
  5
1A3
330
17
100
AcDbEntity
  8
HEIGHT_46FL
370
18
100
AcDbPolyline
 90
4
 70
1
 10
999.3106964955352
 20
1608.2003488379703
 10
1066.4134183570497
 20
1608.2003488379703
 10
1066.4134183570497
 20
1639.1201682115145
 10
999.3106964955352
 20
1639.1201682115145
  0
LWPOLYLINE
  5
1A4
330
17
100
AcDbEntity
  8
HEIGHT_46FL
370
18
100
AcDbPolyline
 90
4
 70
1
 10
1316.5291186459906
 20
1488.0103327895627
 10
1367.77435133925
 20
1488.0103327895627
 10
1367.77435133925
 20
1520.9217287035506
 10
1316.5291186459906
 20
1520.9217287035506
  0
LWPOLYLINE
  5
1A5
330
17
100
AcDbEntity
  8
HEIGHT_46FL
370
18
100
AcDbPolyline
 90
4
 70
1
 10
1078.049686333884
 20
1569.778418574781
 10
1141.8252705503126
 20
1569.778418574781
 10
1141.8252705503126
 20
1603.1780915561428
 10
1078.049686333884
 20
1603.1780915561428
  0
LWPOLYLINE
  5
1A6
330
17
100
AcDbEntity
  8
HEIGHT_46FL
370
18
100
AcDbPolyline
 90
4
 70
1
 10
671.0715155939952
 20
1661.2518795934566
 10
729.6628266501176
 20
1661.2518795934566
 10
729.6628266501176
 20
1696.0684754305828
 10
671.0715155939952
 20
1696.0684754305828
  0
LWPOLYLINE
  5
1A7
330
17
100
AcDbEntity
  8
HEIGHT_46FL
370
18
100
AcDbPolyline
 90
4
 70
1
 10
1421.5461144211995
 20
1442.9353160385529
 10
1475.3806118218495
 20
1442.9353160385529
 10
1475.3806118218495
 20
1478.0148628268237
 10
1421.5461144211995
 20
1478.0148628268237
  0
LWPOLYLINE
  5
1A8
330
17
100
AcDbEntity
  8
HEIGHT_46FL
370
18
100
AcDbPolyline
 90
4
 70
1
 10
829.7940373432386
 20
1402.8192294364612
 10
893.933029652493
 20
1402.8192294364612
 10
893.933029652493
 20
1450.8434179084388
 10
829.7940373432386
 20
1450.8434179084388
  0
LWPOLYLINE
  5
1A9
330
17
100
AcDbEntity
  8
HEIGHT_46FL
370
18
100
AcDbPolyline
 90
4
 70
1
 10
1209.8497971291715
 20
1447.392686621536
 10
1263.1016906372859
 20
1447.392686621536
 10
1263.1016906372859
 20
1484.3039991103976
 10
1209.8497971291715
 20
1484.3039991103976
  0
LWPOLYLINE
  5
1AA
330
17
100
AcDbEntity
  8
HEIGHT_46FL
370
18
100
AcDbPolyline
 90
4
 70
1
 10
1128.8145346137794
 20
1591.6816107080037
 10
1181.5438027676064
 20
1591.6816107080037
 10
1181.5438027676064
 20
1626.6835751961578
 10
1128.8145346137794
 20
1626.6835751961578
  0
LWPOLYLINE
  5
1AB
330
17
100
AcDbEntity
  8
HEIGHT_46FL
370
18
100
AcDbPolyline
 90
4
 70
1
 10
1360.7735326283387
 20
1459.7650997326677
 10
1412.314330097359
 20
1459.7650997326677
 10
1412.314330097359
 20
1499.429260953852
 10
1360.7735326283387
 20
1499.429260953852
  0
LWPOLYLINE
  5
1AC
330
17
100
AcDbEntity
  8
HEIGHT_46FL
370
18
100
AcDbPolyline
 90
4
 70
1
 10
813.4851317348172
 20
1571.5768077052217
 10
870.7294896401766
 20
1571.5768077052217
 10
870.7294896401766
 20
1621.4306485777597
 10
813.4851317348172
 20
1621.4306485777597
  0
LWPOLYLINE
  5
1AD
330
17
100
AcDbEntity
  8
HEIGHT_46FL
370
18
100
AcDbPolyline
 90
4
 70
1
 10
865.7076784949425
 20
1693.3833453730588
 10
925.4545729728029
 20
1693.3833453730588
 10
925.4545729728029
 20
1728.8729529766233
 10
865.7076784949425
 20
1728.8729529766233
  0
LWPOLYLINE
  5
1AE
330
17
100
AcDbEntity
  8
HEIGHT_46FL
370
18
100
AcDbPolyline
 90
4
 70
1
 10
1109.3361152601292
 20
1605.7398478202035
 10
1171.6761804950888
 20
1605.7398478202035
 10
1171.6761804950888
 20
1636.7207328357235
 10
1109.3361152601292
 20
1636.7207328357235
  0
LWPOLYLINE
  5
1AF
330
17
100
AcDbEntity
  8
HEIGHT_46FL
370
18
100
AcDbPolyline
 90
4
 70
1
 10
1145.765843768827
 20
1549.0181859571612
 10
1212.8905024956387
 20
1549.0181859571612
 10
1212.8905024956387
 20
1584.7420689863452
 10
1145.765843768827
 20
1584.7420689863452
  0
LWPOLYLINE
  5
1B0
330
17
100
AcDbEntity
  8
HEIGHT_68FL
370
25
100
AcDbPolyline
 90
4
 70
1
 10
1478.7461314583586
 20
1064.2389988985597
 10
1542.8389696917714
 20
1064.2389988985597
 10
1542.8389696917714
 20
1116.9713564586775
 10
1478.7461314583586
 20
1116.9713564586775
  0
LWPOLYLINE
  5
1B1
330
17
100
AcDbEntity
  8
HEIGHT_68FL
370
25
100
AcDbPolyline
 90
4
 70
1
 10
1282.9802794433344
 20
1106.6586751740156
 10
1361.8174145101627
 20
1106.6586751740156
 10
1361.8174145101627
 20
1159.8423059803506
 10
1282.9802794433344
 20
1159.8423059803506
  0
LWPOLYLINE
  5
1B2
330
17
100
AcDbEntity
  8
HEIGHT_68FL
370
25
100
AcDbPolyline
 90
4
 70
1
 10
1522.1708286587682
 20
1076.948862212139
 10
1608.306976821687
 20
1076.948862212139
 10
1608.306976821687
 20
1129.8756743899494
 10
1522.1708286587682
 20
1129.8756743899494
  0
LWPOLYLINE
  5
1B3
330
17
100
AcDbEntity
  8
HEIGHT_68FL
370
25
100
AcDbPolyline
 90
4
 70
1
 10
939.8261723478997
 20
964.4939140976869
 10
1013.0091245626359
 20
964.4939140976869
 10
1013.0091245626359
 20
1019.1411094564717
 10
939.8261723478997
 20
1019.1411094564717
  0
LWPOLYLINE
  5
1B4
330
17
100
AcDbEntity
  8
HEIGHT_68FL
370
25
100
AcDbPolyline
 90
4
 70
1
 10
699.1467133208408
 20
877.0662709774931
 10
779.0459479183756
 20
877.0662709774931
 10
779.0459479183756
 20
920.5790723863793
 10
699.1467133208408
 20
920.5790723863793
  0
LWPOLYLINE
  5
1B5
330
17
100
AcDbEntity
  8
HEIGHT_68FL
370
25
100
AcDbPolyline
 90
4
 70
1
 10
745.3757775214619
 20
1023.6446553906526
 10
834.2353607699156
 20
1023.6446553906526
 10
834.2353607699156
 20
1074.2617028647082
 10
745.3757775214619
 20
1074.2617028647082
  0
LWPOLYLINE
  5
1B6
330
17
100
AcDbEntity
  8
HEIGHT_68FL
370
25
100
AcDbPolyline
 90
4
 70
1
 10
1604.8356719298667
 20
1198.2835717404384
 10
1665.1144753123972
 20
1198.2835717404384
 10
1665.1144753123972
 20
1254.7773679912866
 10
1604.8356719298667
 20
1254.7773679912866
  0
LWPOLYLINE
  5
1B7
330
17
100
AcDbEntity
  8
HEIGHT_68FL
370
25
100
AcDbPolyline
 90
4
 70
1
 10
1130.0326128611155
 20
1183.89309627626
 10
1209.8949868897973
 20
1183.89309627626
 10
1209.8949868897973
 20
1230.6674013522977
 10
1130.0326128611155
 20
1230.6674013522977
  0
LWPOLYLINE
  5
1B8
330
17
100
AcDbEntity
  8
HEIGHT_68FL
370
25
100
AcDbPolyline
 90
4
 70
1
 10
726.6866781947354
 20
1277.7359757213267
 10
782.3169587949707
 20
1277.7359757213267
 10
782.3169587949707
 20
1337.0659799105817
 10
726.6866781947354
 20
1337.0659799105817
  0
LWPOLYLINE
  5
1B9
330
17
100
AcDbEntity
  8
HEIGHT_68FL
370
25
100
AcDbPolyline
 90
4
 70
1
 10
1546.154656588704
 20
1134.530027245311
 10
1635.3523462999801
 20
1134.530027245311
 10
1635.3523462999801
 20
1193.8754221913116
 10
1546.154656588704
 20
1193.8754221913116
  0
LWPOLYLINE
  5
1BA
330
17
100
AcDbEntity
  8
HEIGHT_68FL
370
25
100
AcDbPolyline
 90
4
 70
1
 10
1485.0464084226182
 20
919.4650296433398
 10
1566.6736871661758
 20
919.4650296433398
 10
1566.6736871661758
 20
959.7434027453578
 10
1485.0464084226182
 20
959.7434027453578
  0
LWPOLYLINE
  5
1BB
330
17
100
AcDbEntity
  8
HEIGHT_68FL
370
25
100
AcDbPolyline
 90
4
 70
1
 10
1190.229539095965
 20
972.8716166403249
 10
1267.1426743709153
 20
972.8716166403249
 10
1267.1426743709153
 20
1026.3184325873451
 10
1190.229539095965
 20
1026.3184325873451
  0
LWPOLYLINE
  5
1BC
330
17
100
AcDbEntity
  8
HEIGHT_68FL
370
25
100
AcDbPolyline
 90
4
 70
1
 10
1243.0161008173827
 20
1193.4503807360645
 10
1330.627776488565
 20
1193.4503807360645
 10
1330.627776488565
 20
1235.6173027800492
 10
1243.0161008173827
 20
1235.6173027800492
  0
LWPOLYLINE
  5
1BD
330
17
100
AcDbEntity
  8
HEIGHT_68FL
370
25
100
AcDbPolyline
 90
4
 70
1
 10
857.2040924327415
 20
715.0147897878894
 10
942.5734862413356
 20
715.0147897878894
 10
942.5734862413356
 20
766.242937432887
 10
857.2040924327415
 20
766.242937432887
  0
LWPOLYLINE
  5
1BE
330
17
100
AcDbEntity
  8
HEIGHT_68FL
370
25
100
AcDbPolyline
 90
4
 70
1
 10
1606.7814996174752
 20
832.8203200443941
 10
1659.3101812638831
 20
832.8203200443941
 10
1659.3101812638831
 20
889.297427072203
 10
1606.7814996174752
 20
889.297427072203
  0
LWPOLYLINE
  5
1BF
330
17
100
AcDbEntity
  8
HEIGHT_68FL
370
25
100
AcDbPolyline
 90
4
 70
1
 10
1600.3264022706812
 20
881.3141047175502
 10
1666.6582365024979
 20
881.3141047175502
 10
1666.6582365024979
 20
924.1096449676946
 10
1600.3264022706812
 20
924.1096449676946
  0
LWPOLYLINE
  5
1C0
330
17
100
AcDbEntity
  8
HEIGHT_68FL
370
25
100
AcDbPolyline
 90
4
 70
1
 10
1640.8876861701408
 20
882.6187506136032
 10
1710.592670929269
 20
882.6187506136032
 10
1710.592670929269
 20
924.5625905860396
 10
1640.8876861701408
 20
924.5625905860396
  0
LWPOLYLINE
  5
1C1
330
17
100
AcDbEntity
  8
HEIGHT_68FL
370
25
100
AcDbPolyline
 90
4
 70
1
 10
1575.9852393813526
 20
781.3984292238019
 10
1644.1309896569082
 20
781.3984292238019
 10
1644.1309896569082
 20
834.8081536008053
 10
1575.9852393813526
 20
834.8081536008053
  0
LWPOLYLINE
  5
1C2
330
17
100
AcDbEntity
  8
HEIGHT_68FL
370
25
100
AcDbPolyline
 90
4
 70
1
 10
1417.4541336754887
 20
1267.5844514676592
 10
1484.2192038120777
 20
1267.5844514676592
 10
1484.2192038120777
 20
1322.4298317629655
 10
1417.4541336754887
 20
1322.4298317629655
  0
LWPOLYLINE
  5
1C3
330
17
100
AcDbEntity
  8
HEIGHT_68FL
370
25
100
AcDbPolyline
 90
4
 70
1
 10
769.9751926508185
 20
948.9307164620841
 10
823.9360580392396
 20
948.9307164620841
 10
823.9360580392396
 20
998.7176572178764
 10
769.9751926508185
 20
998.7176572178764
  0
LWPOLYLINE
  5
1C4
330
17
100
AcDbEntity
  8
HEIGHT_68FL
370
25
100
AcDbPolyline
 90
4
 70
1
 10
1048.9274742674706
 20
1270.9129152286357
 10
1100.2361257416726
 20
1270.9129152286357
 10
1100.2361257416726
 20
1318.3235144033245
 10
1048.9274742674706
 20
1318.3235144033245
  0
LWPOLYLINE
  5
1C5
330
17
100
AcDbEntity
  8
HEIGHT_68FL
370
25
100
AcDbPolyline
 90
4
 70
1
 10
1087.7213946667719
 20
1270.3331019108562
 10
1171.93940239901
 20
1270.3331019108562
 10
1171.93940239901
 20
1312.3201944029788
 10
1087.7213946667719
 20
1312.3201944029788
  0
LWPOLYLINE
  5
1C6
330
17
100
AcDbEntity
  8
HEIGHT_68FL
370
25
100
AcDbPolyline
 90
4
 70
1
 10
1354.2482920294137
 20
1026.679516889287
 10
1443.3619932074955
 20
1026.679516889287
 10
1443.3619932074955
 20
1073.8529937135334
 10
1354.2482920294137
 20
1073.8529937135334
  0
LWPOLYLINE
  5
1C7
330
17
100
AcDbEntity
  8
HEIGHT_68FL
370
25
100
AcDbPolyline
 90
4
 70
1
 10
1037.9536070188103
 20
813.8851372966477
 10
1092.8399957823008
 20
813.8851372966477
 10
1092.8399957823008
 20
870.8458010659214
 10
1037.9536070188103
 20
870.8458010659214
  0
LWPOLYLINE
  5
1C8
330
17
100
AcDbEntity
  8
HEIGHT_68FL
370
25
100
AcDbPolyline
 90
4
 70
1
 10
1100.1891054275688
 20
1097.6612428371868
 10
1175.8572841168975
 20
1097.6612428371868
 10
1175.8572841168975
 20
1149.6041620275778
 10
1100.1891054275688
 20
1149.6041620275778
  0
LWPOLYLINE
  5
1C9
330
17
100
AcDbEntity
  8
HEIGHT_1014FL
370
35
100
AcDbPolyline
 90
4
 70
1
 10
860.6787273681853
 20
1154.0575657045774
 10
895.5501053114657
 20
1154.0575657045774
 10
895.5501053114657
 20
1188.928943647858
 10
860.6787273681853
 20
1188.928943647858
  0
LWPOLYLINE
  5
1CA
330
17
100
AcDbEntity
  8
HEIGHT_1014FL
370
35
100
AcDbPolyline
 90
4
 70
1
 10
912.9619426540214
 20
1054.0600891585834
 10
944.3341457105086
 20
1054.0600891585834
 10
944.3341457105086
 20
1085.4322922150704
 10
912.9619426540214
 20
1085.4322922150704
  0
LWPOLYLINE
  5
1CB
330
17
100
AcDbEntity
  8
HEIGHT_1014FL
370
35
100
AcDbPolyline
 90
4
 70
1
 10
1232.5786879442921
 20
893.2208166559963
 10
1266.8977149826655
 20
893.2208166559963
 10
1266.8977149826655
 20
927.5398436943698
 10
1232.5786879442921
 20
927.5398436943698
  0
LWPOLYLINE
  5
1CC
330
17
100
AcDbEntity
  8
HEIGHT_1014FL
370
35
100
AcDbPolyline
 90
4
 70
1
 10
1284.8477133847723
 20
947.8517990445037
 10
1317.7987969836013
 20
947.8517990445037
 10
1317.7987969836013
 20
980.8028826433325
 10
1284.8477133847723
 20
980.8028826433325
  0
LWPOLYLINE
  5
1CD
330
17
100
AcDbEntity
  8
HEIGHT_1014FL
370
35
100
AcDbPolyline
 90
4
 70
1
 10
1300.265517815879
 20
801.2759981660074
 10
1347.4336403434827
 20
801.2759981660074
 10
1347.4336403434827
 20
848.4441206936109
 10
1300.265517815879
 20
848.4441206936109
  0
LWPOLYLINE
  5
1CE
330
17
100
AcDbEntity
  8
HEIGHT_1014FL
370
35
100
AcDbPolyline
 90
4
 70
1
 10
922.343990160254
 20
858.4964591495466
 10
957.3570740948164
 20
858.4964591495466
 10
957.3570740948164
 20
893.509543084109
 10
922.343990160254
 20
893.509543084109
  0
LWPOLYLINE
  5
1CF
330
17
100
AcDbEntity
  8
HEIGHT_1014FL
370
35
100
AcDbPolyline
 90
4
 70
1
 10
937.2485604506967
 20
1097.4759391687926
 10
967.7641634464206
 20
1097.4759391687926
 10
967.7641634464206
 20
1127.9915421645167
 10
937.2485604506967
 20
1127.9915421645167
  0
LWPOLYLINE
  5
1D0
330
17
100
AcDbEntity
  8
HEIGHT_1014FL
370
35
100
AcDbPolyline
 90
4
 70
1
 10
857.4301636153544
 20
1155.4930989056393
 10
892.1887957371637
 20
1155.4930989056393
 10
892.1887957371637
 20
1190.2517310274486
 10
857.4301636153544
 20
1190.2517310274486
  0
LWPOLYLINE
  5
1D1
330
17
100
AcDbEntity
  8
HEIGHT_1014FL
370
35
100
AcDbPolyline
 90
4
 70
1
 10
1011.8857309810112
 20
878.4107906327797
 10
1042.9337113382346
 20
878.4107906327797
 10
1042.9337113382346
 20
909.4587709900032
 10
1011.8857309810112
 20
909.4587709900032
  0
LWPOLYLINE
  5
1D2
330
17
100
AcDbEntity
  8
HEIGHT_1014FL
370
35
100
AcDbPolyline
 90
4
 70
1
 10
1220.8590284770748
 20
1036.7384869690402
 10
1265.7723339777547
 20
1036.7384869690402
 10
1265.7723339777547
 20
1081.65179246972
 10
1220.8590284770748
 20
1081.65179246972
  0
LWPOLYLINE
  5
1D3
330
17
100
AcDbEntity
  8
HEIGHT_1014FL
370
35
100
AcDbPolyline
 90
4
 70
1
 10
1088.1229827116251
 20
1150.1076676913913
 10
1128.387741863809
 20
1150.1076676913913
 10
1128.387741863809
 20
1190.372426843575
 10
1088.1229827116251
 20
1190.372426843575
  0
LWPOLYLINE
  5
1D4
330
17
100
AcDbEntity
  8
HEIGHT_1014FL
370
35
100
AcDbPolyline
 90
4
 70
1
 10
904.5270050019228
 20
1026.7274104036196
 10
953.435317861325
 20
1026.7274104036196
 10
953.435317861325
 20
1075.6357232630216
 10
904.5270050019228
 20
1075.6357232630216
  0
ENDSEC
  0
SECTION
  2
OBJECTS
  0
DICTIONARY
  5
A
330
0
100
AcDbDictionary
281
1
  3
ACAD_COLOR
350
B
  3
ACAD_GROUP
350
C
  3
ACAD_LAYOUT
350
D
  3
ACAD_MATERIAL
350
E
  3
ACAD_MLEADERSTYLE
350
F
  3
ACAD_MLINESTYLE
350
10
  3
ACAD_PLOTSETTINGS
350
11
  3
ACAD_PLOTSTYLENAME
350
12
  3
ACAD_SCALELIST
350
14
  3
ACAD_TABLESTYLE
350
15
  3
ACAD_VISUALSTYLE
350
16
  3
EZDXF_META
350
2D
  0
DICTIONARY
  5
B
330
A
100
AcDbDictionary
281
1
  0
DICTIONARY
  5
C
330
A
100
AcDbDictionary
281
1
  0
DICTIONARY
  5
D
330
A
100
AcDbDictionary
281
1
  3
Model
350
1A
  3
Layout1
350
1E
  0
DICTIONARY
  5
E
330
A
100
AcDbDictionary
281
1
  3
ByBlock
350
1F
  3
ByLayer
350
20
  3
Global
350
21
  0
DICTIONARY
  5
F
330
A
100
AcDbDictionary
281
1
  3
Standard
350
2C
  0
DICTIONARY
  5
10
330
A
100
AcDbDictionary
281
1
  3
Standard
350
22
  0
DICTIONARY
  5
11
330
A
100
AcDbDictionary
281
1
  0
ACDBDICTIONARYWDFLT
  5
12
330
A
100
AcDbDictionary
281
1
  3
Normal
350
13
100
AcDbDictionaryWithDefault
340
13
  0
ACDBPLACEHOLDER
  5
13
330
12
  0
DICTIONARY
  5
14
330
A
100
AcDbDictionary
281
1
  0
DICTIONARY
  5
15
330
A
100
AcDbDictionary
281
1
  0
DICTIONARY
  5
16
330
A
100
AcDbDictionary
281
1
  3
2dWireframe
350
5A
  3
Basic
350
5B
  3
Brighten
350
5C
  3
ColorChange
350
5D
  3
Conceptual
350
5E
  3
Dim
350
5F
  3
EdgeColorOff
350
60
  3
Facepattern
350
61
  3
Flat
350
62
  3
FlatWithEdges
350
63
  3
Gouraud
350
64
  3
GouraudWithEdges
350
65
  3
Hidden
350
66
  3
JitterOff
350
67
  3
Linepattern
350
68
  3
Modeling
350
69
  3
OverhangOff
350
6A
  3
Realistic
350
6B
  3
Shaded
350
6C
  3
Shaded with edges
350
6D
  3
Shades of Gray
350
6E
  3
Sketchy
350
6F
  3
Thicken
350
70
  3
Wireframe
350
71
  3
X-Ray
350
72
  0
LAYOUT
  5
1A
330
D
100
AcDbPlotSettings
  1

  4
A3
  6

 40
7.5
 41
20.0
 42
7.5
 43
20.0
 44
420.0
 45
297.0
 46
0.0
 47
0.0
 48
0.0
 49
0.0
140
0.0
141
0.0
142
1.0
143
1.0
 70
1024
 72
1
 73
0
 74
5
  7

 75
16
 76
0
 77
2
 78
300
147
1.0
148
0.0
149
0.0
100
AcDbLayout
  1
Model
 70
1
 71
0
 10
0.0
 20
0.0
 11
420.0
 21
297.0
 12
0.0
 22
0.0
 32
0.0
 14
1e+20
 24
1e+20
 34
1e+20
 15
-1e+20
 25
-1e+20
 35
-1e+20
146
0.0
 13
0.0
 23
0.0
 33
0.0
 16
1.0
 26
0.0
 36
0.0
 17
0.0
 27
1.0
 37
0.0
 76
1
330
17
  0
LAYOUT
  5
1E
330
D
100
AcDbPlotSettings
  1

  4
A3
  6

 40
7.5
 41
20.0
 42
7.5
 43
20.0
 44
420.0
 45
297.0
 46
0.0
 47
0.0
 48
0.0
 49
0.0
140
0.0
141
0.0
142
1.0
143
1.0
 70
0
 72
1
 73
0
 74
5
  7

 75
16
 76
0
 77
2
 78
300
147
1.0
148
0.0
149
0.0
100
AcDbLayout
  1
Layout1
 70
1
 71
1
 10
0.0
 20
0.0
 11
420.0
 21
297.0
 12
0.0
 22
0.0
 32
0.0
 14
1e+20
 24
1e+20
 34
1e+20
 15
-1e+20
 25
-1e+20
 35
-1e+20
146
0.0
 13
0.0
 23
0.0
 33
0.0
 16
1.0
 26
0.0
 36
0.0
 17
0.0
 27
1.0
 37
0.0
 76
1
330
1B
  0
MATERIAL
  5
1F
102
{ACAD_REACTORS
330
E
102
}
330
E
100
AcDbMaterial
  1
ByBlock
  2

 70
0
 40
1.0
 71
1
 41
1.0
 91
-1023410177
 42
1.0
 72
1
  3

 73
1
 74
1
 75
1
 44
0.5
 73
0
 45
1.0
 46
1.0
 77
1
  4

 78
1
 79
1
170
1
 48
1.0
171
1
  6

172
1
173
1
174
1
140
1.0
141
1.0
175
1
  7

176
1
177
1
178
1
143
1.0
179
1
  8

270
1
271
1
272
1
145
1.0
146
1.0
273
1
  9

274
1
275
1
276
1
 42
1.0
 72
1
  3

 73
1
 74
1
 75
1
 94
63
  0
MATERIAL
  5
20
102
{ACAD_REACTORS
330
E
102
}
330
E
100
AcDbMaterial
  1
ByLayer
  2

 70
0
 40
1.0
 71
1
 41
1.0
 91
-1023410177
 42
1.0
 72
1
  3

 73
1
 74
1
 75
1
 44
0.5
 73
0
 45
1.0
 46
1.0
 77
1
  4

 78
1
 79
1
170
1
 48
1.0
171
1
  6

172
1
173
1
174
1
140
1.0
141
1.0
175
1
  7

176
1
177
1
178
1
143
1.0
179
1
  8

270
1
271
1
272
1
145
1.0
146
1.0
273
1
  9

274
1
275
1
276
1
 42
1.0
 72
1
  3

 73
1
 74
1
 75
1
 94
63
  0
MATERIAL
  5
21
102
{ACAD_REACTORS
330
E
102
}
330
E
100
AcDbMaterial
  1
Global
  2

 70
0
 40
1.0
 71
1
 41
1.0
 91
-1023410177
 42
1.0
 72
1
  3

 73
1
 74
1
 75
1
 44
0.5
 73
0
 45
1.0
 46
1.0
 77
1
  4

 78
1
 79
1
170
1
 48
1.0
171
1
  6

172
1
173
1
174
1
140
1.0
141
1.0
175
1
  7

176
1
177
1
178
1
143
1.0
179
1
  8

270
1
271
1
272
1
145
1.0
146
1.0
273
1
  9

274
1
275
1
276
1
 42
1.0
 72
1
  3

 73
1
 74
1
 75
1
 94
63
  0
MLINESTYLE
  5
22
102
{ACAD_REACTORS
330
10
102
}
330
10
100
AcDbMlineStyle
  2
Standard
 70
0
  3

 62
256
 51
90.0
 52
90.0
 71
2
 49
0.5
 62
256
  6
BYLAYER
 49
-0.5
 62
256
  6
BYLAYER
  0
MLEADERSTYLE
  5
2C
102
{ACAD_REACTORS
330
F
102
}
330
F
100
AcDbMLeaderStyle
179
2
170
2
171
1
172
0
 90
2
 40
0.0
 41
0.0
173
1
 91
-1056964608
 92
-2
290
1
 42
2.0
291
1
 43
8.0
  3
Standard
 44
4.0
300

342
29
174
1
175
1
176
0
178
1
 93
-1056964608
 45
4.0
292
0
297
0
 46
4.0
 94
-1056964608
 47
1.0
 49
1.0
140
1.0
294
1
141
0.0
177
0
142
1.0
295
0
296
0
143
3.75
271
0
272
9
273
9
  0
DICTIONARY
  5
2D
330
A
100
AcDbDictionary
280
1
281
1
  3
CREATED_BY_EZDXF
350
2E
  3
WRITTEN_BY_EZDXF
350
14E
  0
DICTIONARYVAR
  5
2E
330
2D
100
DictionaryVariables
280
0
  1
1.4.3 @ 2026-03-19T14:36:18.648522+00:00
  0
VISUALSTYLE
  5
5A
102
{ACAD_REACTORS
330
16
102
}
330
16
100
AcDbVisualStyle
  2
2dWireframe
 70
4
 90
0
 40
0.6
 62
7
290
0
291
0
  0
VISUALSTYLE
  5
5B
102
{ACAD_REACTORS
330
16
102
}
330
16
100
AcDbVisualStyle
  2
Basic
 70
7
 90
1
 40
0.6
 62
7
290
0
291
1
  0
VISUALSTYLE
  5
5C
102
{ACAD_REACTORS
330
16
102
}
330
16
100
AcDbVisualStyle
  2
Brighten
 70
12
 90
2
 40
0.6
 62
7
290
0
291
1
  0
VISUALSTYLE
  5
5D
102
{ACAD_REACTORS
330
16
102
}
330
16
100
AcDbVisualStyle
  2
ColorChange
 70
16
 90
2
 40
0.6
 62
8
290
0
291
1
  0
VISUALSTYLE
  5
5E
102
{ACAD_REACTORS
330
16
102
}
330
16
100
AcDbVisualStyle
  2
Conceptual
 70
9
 90
3
 40
0.6
 62
7
290
0
291
0
  0
VISUALSTYLE
  5
5F
102
{ACAD_REACTORS
330
16
102
}
330
16
100
AcDbVisualStyle
  2
Dim
 70
11
 90
2
 40
0.6
 62
7
290
0
291
1
  0
VISUALSTYLE
  5
60
102
{ACAD_REACTORS
330
16
102
}
330
16
100
AcDbVisualStyle
  2
EdgeColorOff
 70
22
 90
2
 40
0.6
 62
7
290
0
291
1
  0
VISUALSTYLE
  5
61
102
{ACAD_REACTORS
330
16
102
}
330
16
100
AcDbVisualStyle
  2
Facepattern
 70
15
 90
2
 40
0.6
 62
7
290
0
291
1
  0
VISUALSTYLE
  5
62
102
{ACAD_REACTORS
330
16
102
}
330
16
100
AcDbVisualStyle
  2
Flat
 70
0
 90
2
 40
0.6
 62
7
290
0
291
1
  0
VISUALSTYLE
  5
63
102
{ACAD_REACTORS
330
16
102
}
330
16
100
AcDbVisualStyle
  2
FlatWithEdges
 70
1
 90
2
 40
0.6
 62
7
290
0
291
1
  0
VISUALSTYLE
  5
64
102
{ACAD_REACTORS
330
16
102
}
330
16
100
AcDbVisualStyle
  2
Gouraud
 70
2
 90
2
 40
0.6
 62
7
290
0
291
1
  0
VISUALSTYLE
  5
65
102
{ACAD_REACTORS
330
16
102
}
330
16
100
AcDbVisualStyle
  2
GouraudWithEdges
 70
3
 90
2
 40
0.6
 62
7
290
0
291
1
  0
VISUALSTYLE
  5
66
102
{ACAD_REACTORS
330
16
102
}
330
16
100
AcDbVisualStyle
  2
Hidden
 70
6
 90
1
 40
0.6
 62
7
290
0
291
0
  0
VISUALSTYLE
  5
67
102
{ACAD_REACTORS
330
16
102
}
330
16
100
AcDbVisualStyle
  2
JitterOff
 70
20
 90
2
 40
0.6
 62
7
290
0
291
1
  0
VISUALSTYLE
  5
68
102
{ACAD_REACTORS
330
16
102
}
330
16
100
AcDbVisualStyle
  2
Linepattern
 70
14
 90
2
 40
0.6
 62
7
290
0
291
1
  0
VISUALSTYLE
  5
69
102
{ACAD_REACTORS
330
16
102
}
330
16
100
AcDbVisualStyle
  2
Modeling
 70
10
 90
2
 40
0.6
 62
7
290
0
291
0
  0
VISUALSTYLE
  5
6A
102
{ACAD_REACTORS
330
16
102
}
330
16
100
AcDbVisualStyle
  2
OverhangOff
 70
21
 90
2
 40
0.6
 62
7
290
0
291
1
  0
VISUALSTYLE
  5
6B
102
{ACAD_REACTORS
330
16
102
}
330
16
100
AcDbVisualStyle
  2
Realistic
 70
8
 90
2
 40
0.6
 62
7
290
0
291
0
  0
VISUALSTYLE
  5
6C
102
{ACAD_REACTORS
330
16
102
}
330
16
100
AcDbVisualStyle
  2
Shaded
 70
27
 90
2
 40
0.6
 62
7
290
0
291
0
  0
VISUALSTYLE
  5
6D
102
{ACAD_REACTORS
330
16
102
}
330
16
100
AcDbVisualStyle
  2
Shaded with edges
 70
26
 90
2
 40
0.6
 62
7
290
0
291
0
  0
VISUALSTYLE
  5
6E
102
{ACAD_REACTORS
330
16
102
}
330
16
100
AcDbVisualStyle
  2
Shades of Gray
 70
23
 90
2
 40
0.6
 62
7
290
0
291
0
  0
VISUALSTYLE
  5
6F
102
{ACAD_REACTORS
330
16
102
}
330
16
100
AcDbVisualStyle
  2
Sketchy
 70
24
 90
1
 40
0.6
 62
7
290
0
291
0
  0
VISUALSTYLE
  5
70
102
{ACAD_REACTORS
330
16
102
}
330
16
100
AcDbVisualStyle
  2
Thicken
 70
13
 90
2
 40
0.6
 62
7
290
0
291
1
  0
VISUALSTYLE
  5
71
102
{ACAD_REACTORS
330
16
102
}
330
16
100
AcDbVisualStyle
  2
Wireframe
 70
5
 90
0
 40
0.6
 62
7
290
0
291
0
  0
VISUALSTYLE
  5
72
102
{ACAD_REACTORS
330
16
102
}
330
16
100
AcDbVisualStyle
  2
X-Ray
 70
25
 90
2
 40
0.5
 62
7
290
0
291
0
  0
DICTIONARYVAR
  5
14E
330
2D
100
DictionaryVariables
280
0
  1
1.4.3 @ 2026-03-19T21:07:25.502893+00:00
  0
ENDSEC
  0
EOF
